Guitar Tabs
song title    band name

Join Us Today!

Don't strum alone...
be a part of the largest online Christian music community. Browse thousands of guitar tabs and chat w/ musicians like yourself.


It's Free!

This tab has been rated a 5.00 out of 5 for accuracy. (1 vote)Sorry, but you must be logged in to rate this tab.
Click here to log-in, or you can click here to register.
(Registration is free)

All songs owned by corresponding publishing company. If you make copies of any song on this website, be sure to report your usage to CCLI.
Submitted by: JMessenjah17

Song: Draw the Line
Artist: P.O.D.(Payable On Death)
Submitted by: JMessenjah17

This is the 'Live' version of Draw the Line. It was pretty hard to figure out
the right chords and leads for this song. Why is everybody just sitting around
and waiting the tabs to these songs to just pop up? These are old school P.O.D.
songs people! We don't want to let them go unforgotten! Anyway, have fun with
this song. God bless and Jah People Ride On!

Tuning: D A D G B e

/=slide up
\=slide down
P.M.=palm mute
h=hammer down
p=pull off
~=let it ring

Intro/First Verse/Third Verse/Chorus:
e/------------------------------------------------]
B/------------------------------------------------]
G/------------------------------------------------]
D/-3\4-4\5/3-444--7--------3\4-4\5/3--6-6h8p6-9-5-]
A/-3\4-4\5/3-444---7h5p7---3\4-4\5/3--------------]
D/-3\4-4\5/3-444--------0--3\4-4\5/3--------------]

Trasition to Verse("BROTHERS AND SISTERS!!!"):
e/--------]
B/--------]
G/--------]
D/-3\4--4-]
A/-3\4--4-]
D/-3\4--4-]

Post-chorus("TOGETHER!!!"):
e/---------------------------------------]
B/---------------------------------------]
G/-3--3\6~/3\4--3--3\6~/3\4--3--3\6~/3\4-]
D/-3--3\6~/3\4--3--3\6~/3\4--3--3\6~/3\4-]
A/-1--1\4~/1\2--1--1\4~/1\2--1--1\4~/1\2-]
D/---------------------------------------]

Second Verse:
e/------------------------------------------------]
B/------------------------------------------------]
G/------------------------------------------------]
D/-3\4-4\5/3-444-----------3\4-4\5/3--6-6h8p6-9-5-]
A/-3\4-4\5/3-444-----------3\4-4\5/3--------------]
D/-3\4-4\5/3-444-----------3\4-4\5/3--------------]
PM.......... ...           .........

Short Bridge/Outro("WHO'S GONNA DRAW THE LINE?"):
e/--------------------------]
B/--------------------------]
G/--------------------------]
D/-4~~-5--4~~-8/4~~-5--4--8-]
A/-4~~-5--4~~-8/4~~-5--4--8-]
D/-4~~-5--4~~-8/4~~-5--4--8-]

Now you can do whatever you want with the solo, cuz I've heard about three
different versions of it. On the 'Live' cd, Marcos accidenttally messes up some
of the leads in the song, so don't worry about it.

Ending:
e/-----]
B/-----]
G/-----]
D/-4~~-]
A/-4~~-]
D/-4~~-]

Song Order:
Intro 2x
Transition to Verse 1x
First Verse 4x
Chorus 2x
Post-chorus 1x
Second Verse 4x
Chorus 2x
Post-chorus 1x
Short Bridge 1x
(Solo)
Transition to Verse 1x
Third Verse 4x
Chorus 2x
Post-chorus 1x
Outro 1x
Ending 1x

Comments about this tab

No comments/corrections found. Add your own

Complimentary Christian Ringtones
Dadamobile and CGR have teamed up to bring your favorite Christian artists right to your phone. Sign up today and get 10 complementary ringtones!
Tab Country
Did you know CGR has a sister site w/ country guitar tabs? Well we do! Its called Tab Country. It has a great archive with a lot of country tabs.
Rockin Tabs
Are you looking for a site that has rock guitar tabs? Then Rockintabs.com is the place for you. It is a budding site with many rock guitar tabs. Submit your tab today.
Tab Gallery
Tab Gallery has a compilation of christian, rock, and country tabs all in one place. Come visit us.