Guitar Tabs
song title    band name

Join Us Today!

Don't strum alone...
be a part of the largest online Christian music community. Browse thousands of guitar tabs and chat w/ musicians like yourself.


It's Free!

East West - Dwell

This tab has been rated a 4.25 out of 5 for accuracy. (4 votes)Sorry, but you must be logged in to rate this tab.
Click here to log-in, or you can click here to register.
(Registration is free)

All songs owned by corresponding publishing company. If you make copies of any song on this website, be sure to report your usage to CCLI.
Submitted by: matt_aragon

Artist: EastWest
Song: Dwell (Live)
Album: Hope In Anguish
Tabbed by: Shem Reyes (bad_habit_6@hotmail.com

B F# B E G# C# 

Intro/verse (Some creepy sounding effect but clean works fine)
C#|-------------------------------------------------------|----
G#|--------11---------13----13-----------4--------6---6---|----
E |-----14----14--x2-----14----14/7----7---7--x2----7---7-|----
B |--12------------------------------5--------------------|--0-
F#|-------------------------------------------------------|--0-
B |-------------------------------------------------------|--0-

Chorus 

C#|-------------------------------------------------------
G#|-------------------------------------------------------
E |-------------------------------------------------------
B |--3-2--xxx--3-2--xxx--5-2--xxx--3-00-------------------
F#|--3-2--xxx--3-2--xxx--5-2--xxx--3-00-------------------
B |--3-2--xxx--3-2--xxx--5-2--xxx--3-00-------------------

Bridge 

C#|-------------------------------------------------------
G#|-------------------------------------------------------
E |-------------------------------------------------------
B |----------------------1010101010101010-/-77777777------
F#|----------------------8-8-8-8-8-8-8-8--/-55555555------
B |--0-0h3-3h5-5p3p2-----8-8-8-8-8-8-8-8--/-55555555------

C#|-------------------------------------------------------
G#|-------------------------------------------------------
E |-------------------------------------------------------
B |--0--x-0-0---1010101010101010-/-77777777---------------
F#|--0--x-0-0---8-8-8-8-8-8-8-8--/-55555555---------------
B |--0--x-0-0---8-8-8-8-8-8-8-8--/-55555555---------------


I Tabbed this out from a tape I recorded of the guys at their album release
shows, So it's a lil different in the verse and intro from the album but it
should be pretty close only thing missing is Jon's Solo. So if anyone can send
that in that'd be awesome.  Awesome song really good live. Mike if you're
reading this hope you guys stay blessed and stay safe.  www.powerjams.com!!! 

Comments about this tab

No comments/corrections found. Add your own

Complimentary Christian Ringtones
Dadamobile and CGR have teamed up to bring your favorite Christian artists right to your phone. Sign up today and get 10 complementary ringtones!
Tab Country
Did you know CGR has a sister site w/ country guitar tabs? Well we do! Its called Tab Country. It has a great archive with a lot of country tabs.
Rockin Tabs
Are you looking for a site that has rock guitar tabs? Then Rockintabs.com is the place for you. It is a budding site with many rock guitar tabs. Submit your tab today.
Tab Gallery
Tab Gallery has a compilation of christian, rock, and country tabs all in one place. Come visit us.