Guitar Tabs
song title    band name

Join Us Today!

Don't strum alone...
be a part of the largest online Christian music community. Browse thousands of guitar tabs and chat w/ musicians like yourself.


It's Free!

Third Day - King Of Glory v2

This tab has been rated a 4.33 out of 5 for accuracy. (9 votes)Sorry, but you must be logged in to rate this tab.
Click here to log-in, or you can click here to register.
(Registration is free)

All songs owned by corresponding publishing company. If you make copies of any song on this website, be sure to report your usage to CCLI.
Submitted by: Rockoutryan

"King of Glory"
by Third Day 
Offerings Copyright 2000 New Spring Publishing, Inc./ vandura 2500 songs

Intro and verse:


-------------------------------------------------------
--3----3----3--2--3p2------2--0---0----2--3p2-0--------
-----2-----2----------2---2----0----0--2--------2------
--0-------0----0---------0------0-----------------0----
---------------------------------------0---------------
------------------------------3------------------------
  D            Asus4          G        Asus4  Gsus2

Verse part 2 and Chorus:                  

--3-------2----2--2----0---0----3-----2--0-|---2------
--3-------3----2--3----2---0----3-----3--3-|---1------
--0-------4----4--4----2---2----0-----2--2-|---2------
--0-------4----4--4----2---2----0-----0--0-|---0------
--2-------2----2--2----0---0----2----------|----------
--3-----------------------------3----------|----------

Solo:
This is a very difficult point for me. This is obviously a slide guitar
solo with delay. It also sounds like he's using a harmonizing effect
because you're not going to be able to play something like this with a slide
Unfortunately, I'm hearing a different interval (besides the fourth)as well.
So near as I can figure, this was two guitars playing this harmoniously.
I guess Brad and Mark just play this at concerts while Mac just plays rhythm.
It's beautiful. I guess they do it that way live as well. If you want to play
it without a slide, go right ahead. Put some thick delay and reverb in the mix.
have fun.

---------------12-4--2-----7--4--2-2/4----12-4--2-------------------
--5--7--7/9----14-5--4-----9--5--4-4-5----14-5--4----9/10\9/10\9----
--------------------------------------------------------------------
--------------------------------------------------------------------
--------------------------------------------------------------------
--------------------------------------------------------------------

-----12-----12-14-14/16-----16\14--14\12---12/14\12-----------------
--\5/14-----14-16-16/17-----17\16--16\14---12/14\12-----------------
--------------------------------------------------------------------
--------------------------------------------------------------------
--------------------------------------------------------------------
--------------------------------------------------------------------

Well, there's some other guitar stuff going on, but it's sorta not that 
memorable. This is a pretty good song though and the solo is fun.
If you have any comments on that in particular, like...if you've seen
them do it live differently, feel free to email.
God bless.

rockinryan@sbcglobal.net

Comments about this tab

acousticman04 - 2004-06-15

i was just fixin to tab this song b/c i couldn't find it right anywhere but now i have. this tab is perfect.


scheller - 2004-08-03

You are right in that they use a slide for the solo, but it is probably two guitars playing slide--one for the E string and one for the B string on the recording. I don't know how they play it live.


swimmer - 2004-08-13

the intro sounds better this way:

b ---2h3p2----


GuitarOfGold - 2004-08-16

I've been to a 3rd day concert. They use a 6-string steel guitar, almost identical to the one at musiciansfriend.com (for somewhere between $79 and $99). It's one guitar, so I'm not sure what tuning they used. I had my guitar set up for it once a long time ago. It's an unusual tuning, and I can't seem to remember it. If you experiment with it, you'll find it out. It involves the 3 highest strings, but only two of them at any given time. And a lot of delay and chorus, too.


guitarmanjer - 2004-10-21

So far I haven't found any lyrics with chords to any of these songs. If anyone comes up with chorded versions I have both the words and lyrics to some of these songs from these guys. if you want to email me I can email them to just reach me at raygo@eagle.ca. God Bless, guitarmanjer!


audioa41 - 2005-01-03

thats sounds exactly right, exept i think it's in the wrong key, it should be in E. like this:

E2 Emaj7 A A


audioa41 - 2005-01-03

^ actually just put a capo on the second fret


GuitarOfGold - 2005-03-21

Dude, E without a capo is far more euphoric.
E5 - 079900
Emaj7(no 3rd) - 079800
Emaj7(no 3rd)/Eb - x69800
A(add9) - x07600 or 577600
A(add b5) - x07800 or B(add4)/A (nearly the same chord) - x09800
A(add9)/C# - x47600
C#m7 - x46600
B4 - x24400
A2 - x02200
B(add4) - 799800

I use these chords everytime I'm in E. And you don't even have to be able to do bar chords. ;) (although it helps as a reference, since these chords are based on bar and double-bar chords.)


Add a comment/correction

Complimentary Christian Ringtones
Dadamobile and CGR have teamed up to bring your favorite Christian artists right to your phone. Sign up today and get 10 complementary ringtones!
Tab Country
Did you know CGR has a sister site w/ country guitar tabs? Well we do! Its called Tab Country. It has a great archive with a lot of country tabs.
Rockin Tabs
Are you looking for a site that has rock guitar tabs? Then Rockintabs.com is the place for you. It is a budding site with many rock guitar tabs. Submit your tab today.
Tab Gallery
Tab Gallery has a compilation of christian, rock, and country tabs all in one place. Come visit us.