Guitar Tabs
song title    band name

Join Us Today!

Don't strum alone...
be a part of the largest online Christian music community. Browse thousands of guitar tabs and chat w/ musicians like yourself.


It's Free!

This tab has been rated a 5.00 out of 5 for accuracy. (3 votes)Sorry, but you must be logged in to rate this tab.
Click here to log-in, or you can click here to register.
(Registration is free)

All songs owned by corresponding publishing company. If you make copies of any song on this website, be sure to report your usage to CCLI.
Submitted by: dohnelley

Author/Artist: East West
Title: Wake
Transcribed by: dohnelley
Drop B Tuning. (B,F#,B,E,G#,C#)

Well I am 99% sure that this song is 100% correct. The tuning I got from
Mikey Tubbs himself and I picked up the tabs at numerous concerts and
listening to the CD. Enjoy. Buy East West's new CD. It's real good.

Intro. Get timing from the song.
------------------------------------------------------------------------------
------------------------------------------------------------------------------
-9--9--9--9-------------------------------------------------------------------
-10-10-10-10---0--0--0--------------------------------------------------------
-9--9--9--9----0--0--0--------------------------------------------------------
---------------0--0--0--------------------------------------------------------
               x  x  x                                                        

Chorus #1. Palm muted the whole time with distortion bass.
------------------------------------------------------------------------------
------------------------------------------------------------------------------
------------------------------------------------------------------------------
-5--0--3--0--2--0--1--0-------------------------------------------------------
-5--0--3--0--2--0--1--0-------------------------------------------------------
-5--0--3--0--2--0--1--0-------------------------------------------------------
 x  x  x  x  x  x  x  x                                                       

Main Chorus.
------------------------------------------------------------------------------
------------------------------------------------------------------------------
------------------------------------------------------------------------------
-5--3--0--2--0--1--0----------------------------------------------------------
-5--3--0--2--0--1--0----------------------------------------------------------
-5--3--0--2--0--1--0----------------------------------------------------------
                                                                              
Chorus #3.
------------------------------------------------------------------------------
------------------------------------------------------------------------------
------------------------------------------------------------------------------
-2--2--0--9--10---------------------------------------------------------------
-2--2--0--9--10---------------------------------------------------------------
-2--2--0--9--10---------------------------------------------------------------
                                                                              
Last part of song. Takes a while to master.
------------------------------------------------------------------------------
------------------------------------------------------------------------------
------------9--9--9-----------------------------------------------------------
-0-0-0-0-0--10-10-10----------------------------------------------------------
-0-0-0-0-0--9--9--9-----------------------------------------------------------
-0-0-0-0-0--------------------------------------------------------------------
 x x x x x

Comments about this tab

spazboy20180 - 2004-07-25

this tab is perfect...good job.


Add a comment/correction

Complimentary Christian Ringtones
Dadamobile and CGR have teamed up to bring your favorite Christian artists right to your phone. Sign up today and get 10 complementary ringtones!
Tab Country
Did you know CGR has a sister site w/ country guitar tabs? Well we do! Its called Tab Country. It has a great archive with a lot of country tabs.
Rockin Tabs
Are you looking for a site that has rock guitar tabs? Then Rockintabs.com is the place for you. It is a budding site with many rock guitar tabs. Submit your tab today.
Tab Gallery
Tab Gallery has a compilation of christian, rock, and country tabs all in one place. Come visit us.