Guitar Tabs
song title    band name

Join Us Today!

Don't strum alone...
be a part of the largest online Christian music community. Browse thousands of guitar tabs and chat w/ musicians like yourself.


It's Free!

Five Iron Frenzy - Every New Day

This tab has been rated a 3.33 out of 5 for accuracy. (3 votes)Sorry, but you must be logged in to rate this tab.
Click here to log-in, or you can click here to register.
(Registration is free)

All songs owned by corresponding publishing company. If you make copies of any song on this website, be sure to report your usage to CCLI.
Submitted by: FunkyToby

"Every New Day"
 Five Iron Frenzy
 Our Newest Album Ever!
 Lyrics: Reese Roper
 Music: Scott Kerr & Dennis Culp
 (c) 1997 5 Minute Walk Music
 Tabbed by: Johnny Lloyd (StarFlyr99@aol.com)

     C#m   B    E    A   G#
e-|---4----7----7----5----4---|
B-|---5----7----9----5----4---|
G-|---6----8----9----6----5---|  ( )=Put your finger on note,
D-|---6----9----9----7----6---|     but don't play it.
A-|--(4)--(9)--(7)--(7)--(6)--|
E-|-------(7)-------(5)--(4)--|


Guitar Intro, Verse, and Chorus:  C#m  B  E  A

 
 --Bass Intro, Verse, and Chorus--
G-|---------------------------------|
D-|---------------------------------|
A-|-4-4---4-----6-6-7-7---7---------|
E-|---------7-7-------------5-5-7-7-|



RIGHT HERE
Guitar Prechorus:


e-|------5-----------7------|
B-|------5-----------9------|
G-|------6-----------9------| (repeat 3X)
D-|------7-----------9------|
A-|-------------------------|
E-|-------------------------|

e-|------5-----------4------|
B-|------5-----------4------|
G-|------6-----------5------|
D-|------7-----------6------|
A-|-------------------------|
E-|-------------------------|

Bass Prechorus:
This took me forever to figure out
D-|-----------7-7-11-11-------------6-6-------|
A-|----9-9--9------------4-4--4-7-7-----------| (repeat)
E-|-------------------------------------------|

D-|----7-7--7----------------6-6-9-9--7-7--7--11-7--6-6--6-10-6-----|
A-|-----------4-4-6-6-7-7--7----------------------------------------|
E-|-----------------------------------------------------------------|

Guitar Part Right After 2nd Chorus:  G#  A

 --Bass Part Right After 2nd Chorus--
G-|---------------------------------|
D-|---------------------------------|
A-|-------3--6--4---------4-7-6-4---|
E-|-4-------------5-----7---------7-|


 --Guitar "Man vs. Himself"--
e-|--------------------|
B-|----5-----------7---|
G-|---6-----------7----|
D-|--6-----------7-----|
A-|-4-----------5------|
E-|--------------------|
Until "So hard to breathe"
e-|--------------------|
B-|----9-----------7---|
G-|---9-----------7----|
D-|--9-----------7-----|
A-|-7-----------5------|
E-|--------------------|

 
 --Bass "Man vs. Himself--
G-|-----------------------------------------------------|
D-|------2-2----------2-2----------4-4----------4-4-----|
A-|-44-4---------44-4---------55-5---------55-5---------|
E-|----------4-4----------4-4----------5-5----------5-5-|

 
 --Guitar "Healing Hands..."--
G-|-9-9-9-9-9-9-9-9---------------------------------|
D-|-9-9-9-9-9-9-9-9-9-9-9-9-9-9-9-9-6-6-6-6-6-6-6-6-|
A-|-7-7-7-7-7-7-7-7-9-9-9-9-9-9-9-9-6-6-6-6-6-6-6-6-|
E-|-----------------7-7-7-7-7-7-7-7-4-4-4-4-4-4-4-4-|

G-|-6-6-6-6-4-4-4-2-2-2-2-2-2-2-2-2-----------------|
D-|-6-6-6-6-4-4-4-2-2-2-2-2-2-2-2-2-6-6-6-6-6-6-6-6-|
A-|-4-4-4-4-2-2-2-0-0-0-0-0-0-0-0-0-6-6-6-6-6-6-6-6-|
E-|---------------------------------4-4-4-4-4-4-4-4-|

G-|-----------------4-4-4-4-4-4-4-4-|
D-|-4-4-4-4-4-4-4-4-4-4-4-4-4-4-4-4-|
A-|-4-4-4-4-4-4-4-4-2-2-2-2-2-2-2-2-|
E-|-2-2-2-2-2-2-2-2-----------------|

Bass "Healing Hands": Follows the guitar's power chords

Comments about this tab

bhix1189 - 2004-03-30

Guitar Intro, Verse, and Chorus sounds more like: C#m B C#m A


Add a comment/correction

Complimentary Christian Ringtones
Dadamobile and CGR have teamed up to bring your favorite Christian artists right to your phone. Sign up today and get 10 complementary ringtones!
Tab Country
Did you know CGR has a sister site w/ country guitar tabs? Well we do! Its called Tab Country. It has a great archive with a lot of country tabs.
Rockin Tabs
Are you looking for a site that has rock guitar tabs? Then Rockintabs.com is the place for you. It is a budding site with many rock guitar tabs. Submit your tab today.
Tab Gallery
Tab Gallery has a compilation of christian, rock, and country tabs all in one place. Come visit us.