Guitar Tabs
song title    band name

Join Us Today!

Don't strum alone...
be a part of the largest online Christian music community. Browse thousands of guitar tabs and chat w/ musicians like yourself.


It's Free!

This tab has been rated a 4.76 out of 5 for accuracy. (21 votes)Sorry, but you must be logged in to rate this tab.
Click here to log-in, or you can click here to register.
(Registration is free)

All songs owned by corresponding publishing company. If you make copies of any song on this website, be sure to report your usage to CCLI.
Submitted by: w00t man

Relient K - Five Iron Frenzy is Either Dead or Dying

The Vynil Countdown 7-inch 

Guitar Tab

This is a great song...even if it's only about 30 seconds long.  you can get
it off of MP3.com if you dont want to get the vynil

This should be pretty good...it's based off the bass tab, so it may not be
entirely right, but somewhere close

x-palm mute

e|---------------------------------------------|
B|-----------------5-5---3-3-------------------|
G|-----------------4-4---2-2---6-6---6---------|
D|-7---2-2---4-4---2-2---0-0---6-6---622222222-| (2x)
A|-7---2-2---4-4---------------4-4---422222222-|
E|-5---0-0---2-2----------------------00000000-|
                                      xxxxxxxx

e|---------------------------------------------------------------------
B|-3-3-3-3-5-5-5-5-----------------3-3-3-3-5-5-5-5---------------------
G|-2-2-2-2-4-4-4-4-2-2-2-2---------2-2-2-2-4-4-4-4-22-222-222-222------
D|-0-0-0-0-2-2-2-2-2-2-2-2-4-4-4-4-0-0-0-0-2-2-2-2-22-222-222-222------
A|-----------------0-0-0-0-4-4-4-4-----------------00-000-000-000------
E|-------------------------2-2-2-2-------------------------------------

e|---------------------------------------------------|
B|-3-3-3-3-5-5-5-5-----------------3-3-3-3-5-5-5-5---|
G|-2-2-2-2-4-4-4-4-2-2-2-2---------2-2-2-2-4-4-4-4-2-|
D|-0-0-0-0-2-2-2-2-2-2-2-2-4-4-4-4-0-0-0-0-2-2-2-2-2-|
A|-----------------0-0-0-0-4-4-4-4-----------------0-|
E|-------------------------2-2-2-2-------------------|

Comments about this tab

D-Miles - 2005-03-11

where can i lesten to this song?


ska_man26 - 2005-04-10

this song was on their "vinyl countdown" 7". i heard sthat their was an mp3 for it, but yeah. u might be able to find the vinyl on ebay or somehting. rock on. God Bless
dan


jamforchrist123 - 2005-10-07

I found The Record, But Its Like 100 Bucks


FIFPhreak - 2005-11-20

100 bucks. Still their right Five Iron is dead...sniff.


spy_hunter27 - 2006-02-27

I'm really going to miss them, waaah, They were so awsome


Switchfoot_ - 2007-04-11

Hey Woot Man, I wish I could rate your tab, but i've never heard this song cause i don't have the record, and it's not on MP3.COM anymore. Do you know where else I could find it?


Switchfoot_ - 2007-05-18

Ok, I heard it. 5+!


Switchfoot_ - 2007-05-18

Hey, I tabbed the song 'the vinyl countdown' and wanted to see if I did a good job. I submitted it too. please tell me if I did do a good job.


The Vinyl Countdown
Relient K
The Vinyl Countdown 7-inch

Tunning: I do it half/step down (Eb), but you could do it in standard.

The Post-Chorus might be a little wrong, but it's close!

For the intro, go really fast, cause some chords might be hidden in
the song, so pay attention!

Intro (REALLY FAST): B E B E F#m A#m x4

Verse: B E F#m (over and over until chorus)

Chorus (" let's put this in a..."): B E Ab F#m x2

Post-Chorus ("It's all the same with...") C#m B E x2

Intro

Verse

Chorus

Bridge: Same chords as Post-chorus x2 (first time instrumental,
second time sing and play the Post-Chorus)

Chorus

End: A B


Add a comment/correction

Complimentary Christian Ringtones
Dadamobile and CGR have teamed up to bring your favorite Christian artists right to your phone. Sign up today and get 10 complementary ringtones!
Tab Country
Did you know CGR has a sister site w/ country guitar tabs? Well we do! Its called Tab Country. It has a great archive with a lot of country tabs.
Rockin Tabs
Are you looking for a site that has rock guitar tabs? Then Rockintabs.com is the place for you. It is a budding site with many rock guitar tabs. Submit your tab today.
Tab Gallery
Tab Gallery has a compilation of christian, rock, and country tabs all in one place. Come visit us.