Guitar Tabs
song title    band name

Join Us Today!

Don't strum alone...
be a part of the largest online Christian music community. Browse thousands of guitar tabs and chat w/ musicians like yourself.


It's Free!

Relient K - Softer To Me

This tab has been rated a 4.43 out of 5 for accuracy. (7 votes)Sorry, but you must be logged in to rate this tab.
Click here to log-in, or you can click here to register.
(Registration is free)

All songs owned by corresponding publishing company. If you make copies of any song on this website, be sure to report your usage to CCLI.
Submitted by: Softer2me

Song: Softer To Me (Acoustic)
Artist: Relient K
CD: Two Lefts Dont Make a Right, But Three do...
Written by: Matthew Thiessen
Copyright: 2003 Gotee Music
Tabbed by: Extreme_je5u5freak@yahoo.com

This is the Acoustic version of Softer to Me
on the Creepy EP CD. It is an Awesome Acoustic song
It has 2 guitars in it. So if you are really talented
or have a friend, play both parts, or..you could play
with the cd.  I have no clue why someone else hasn't 
put up a tab for this song....Please feel free 
to email me For anything!

Extreme_je5u5freak@yahoo.com



Standard tuning: Eadgbe


Intro: Guitar 1
	         crescendo (Slowly get louder)
e ---------4-------------------------------------------------------
b --------------9-9-9-9-9-9-9-9-9-9-9-9-9-9-9-9--------------------
g -----------------------------------------------------------------
d ------6-------6-6-6-6-6-6-6-6-6-6-6-6-6-6-6-6--------------------
a ---0-------------------------------------------------------------
E -----------------------------------------------------------------
 

Intro: Guitar 2                       (Crescendo)
                                      G#
e -----------------------------------------------------------------
b -----------------------------------------------------------------
g -----------------------------------------------------------------
d ------------------------------------6--6--6--6--6--6--6--6-------
a ------------------------------------6--6--6--6--6--6--6--6-------
E ------------------------------------4--4--4--4--4--4--4--4-------

*********************************************************************


Intro2: Guitar 1
   
e -----------------------------------------------------------------
b -----9------------7----------------------------------------------
g -------(x21)--------(x8)-----------------------------------------
d -----6------------4----------------------------------------------
a -----------------------------------------------------------------
E -----------------------------------------------------------------


Intro2: Guitar 2

      Play each chord 8 times
       C#m    A      E     B
e -----4------5----------------------------------------------------
b -----5------5----------------------------------------------------
g -----6------6------9-----8---------------------------------------
d -----6------7------9-----9---------------------------------------
a -----4------7------7-----9---------------------------------------
E -----4------5------0-----7---------------------------------------

*********************************************************************


Verse: Guitar 1

e -------------------------------------------------------------------
b -----9-9-9----99--9-9-9----99--9-9-9-9-9-9-9-9--7-7-7-7-7-7-7-7----
g -------------------------------------------------------------------
d -----6-6-6----66--6-6-6----66--6-6-6-6-6-6-6-6--4-4-4-4-4-4-4-4----
a -------------------------------------------------------------------
E -------------------------------------------------------------------

 Play tab twice
e -------------------------------------------------------------------
b -----9------------7--------------------9------------7--------------
g -------(x21)--------(x8)-----------------(x21)--------(x8)---------
d -----6------------4--------------------6------------4--------------
a -------------------------------------------------------------------
E -------------------------------------------------------------------


Verse: Guitar 2
       
       C#m          A            E                B
e -----4-4-4----44--5-5-5----55---------------------------------------
b -----5-5-5----55--5-5-5----55---------------------------------------
g -----6-6-6----66--6-6-6----66--9-9-9-9-9-9-9-9--8-8-8-8-8-8-8-8-----
d -----6-6-6----66--7-7-7----77--9-9-9-9-9-9-9-9--9-9-9-9-9-9-9-9-----
a -----4-4-4----44--7-7-7----77--7-7-7-7-7-7-7-7--9-9-9-9-9-9-9-9-----
E -----4-4-4----44--5-5-5----55-------------------7-7-7-7-7-7-7-7-----


      Play each chord 8 times          Play each chord 8 times
       C#m    A      E     B             C#m    A      E     B
e -----4------5--------------------------4------5---------------------
b -----5------5--------------------------5------5---------------------
g -----6------6------9-----8-------------6------6------9-----8--------
d -----6------7------9-----9-------------6------7------9-----9--------
a -----4------7------7-----9-------------4------7------7-----9--------
E -----4------5------0-----7--------------------5------0-----7--------

***********************************************************************


PreChorus:Guitar 1

e --------------------------------------------------------------------
b -----9-9-9-------9-9-9--------9-9-9-9-9-9-9-9--7-7-7-7-7-7-7-7------
g --------------------------------------------------------------------
d -----6-7-6-------6-7-6--------6-6-6-6-6-6-6-6--4-4-4-4-4-4-4-4------
a --------------------------------------------------------------------
E --------------------------------------------------------------------


PreChorus:Guitar 2

       C#m         A            E                B     
e -----4-4-4-------5-5-5----------------------------------------------
b -----5-5-5-------5-5-5----------------------------------------------
g -----6-6-6-------6-6-6--------9-9-9-9-9-9-9-9--8-8-8-8-8-8-8-8------
d -----6-6-6-------7-7-7--------9-9-9-9-9-9-9-9--9-9-9-9-9-9-9-9------
a -----4-4-4-------7-7-7--------7-7-7-7-7-7-7-7--9-9-9-9-9-9-9-9------
E -----4-4-4-------5-5-5-------------------------7-7-7-7-7-7-7-7------

***********************************************************************

PLAY CHOURS TWICE
y = rest
Chorus: Guitar 1

e -----------0---0-------0---0---0---5---4-------0--------------------
b ---4-5-y-5---5---5-4-5---5---5---0---5---5-4-5---5-4-5-4-5-4-5-4-5--
g --------------------------------------------------------------------
d --------------------------------------------------------------------
a --------------------------------------------------------------------
E --------------------------------------------------------------------

Chorus: Guitar 2

e -------------------0------------------------------------------------
b ----------------------0---------------------------------------------
g ---------6---------------1-------9------9-----------9-----9----9----
d ------6------------------------9------9------9----9-----9----9------
a ---4------------0------------7------7------7----6-----6-------------
E --------------------------------------------------------------------


End Chorus: Guitar 1

e --------------------------------------------------------------------
b --------------------------------------------------------------------
g ----------------------2---------------------------------------------
d -------------------2------------------------------------------------
a ----------------0---------------------------------------------------
E --------------------------------------------------------------------


End Chorus: Guitar 2
                                (crescendo)
                               E
e -------------------0------------------------------------------------
b ----------------------0---------------------------------------------
g ---------6---------------1---9-9-9-9-9-9-9-9--9-9-9-9-9-9-9-9-------
d ------6----------------------9-9-9-9-9-9-9-9--9-9-9-9-9-9-9-9-------
a ---4------------0------------7-7-7-7-7-7-7-7--6-6-6-6-6-6-6-6-------
E --------------------------------------------------------------------

************************************************************************


Bridge (and in between chorus and verse): Guitar 1

e ---------------------------------------------------------------------
b ---9-9-9-9-9-9-9-9-9-5-5-5-5-5-5-5-5-5-5-5-5-5-5-5-4-4-4-4-4-4-4-4---
g ---------------------------------------------------------------------
d ---6-6-7-6-6-6-7-6-6-2-2-2-2-2-2-2-2-2-2-2-2-2-2-2-1-1-1-1-1-1-1-1---
a ---------------------------------------------------------------------
E ---------------------------------------------------------------------


Bridge (and in between chorus and verse): Guitar 1


      Play each chord 8 times

       C#m    A      E     B
e -----4------5----------------------------------------------------
b -----5------5----------------------------------------------------
g -----6------6------9-----8---------------------------------------
d -----6------7------9-----9---------------------------------------
a -----4------7------7-----9---------------------------------------
E -----4------5------0-----7---------------------------------------

************************************************************************

Last Chord:

       C#m
e -----4-----
b -----5-----
g -----6-----
d -----6-----
a -----4-----
E -----4-----



Listen to the song to get the order 
of the tabs. But just in case you don't know.....

Order:
Play everything starting at top
After you reach the bottom go to
(Verse) and play through untill you get
to (chorus). Play (Chorus) not (End Chorus)
and play it 5 times. Then go on and play
(End Chorus) and Then The (bridge) thing 4 times
then end with the last chord!

Have fun,
God Bless,
Mike

Comments about this tab

Bobsnox - 2004-08-06

right on


rockerchicker - 2004-08-19

is there any other way to finger the chords on b and d?


4Play - 2004-10-13

RockChick - There's a 'D' in the song???


4Play - 2004-10-13

Oh and otherwise... Brilliant Tab.


viceboy - 2005-03-17

the Crescendo in the beginning is actually a C#m7

also the chords are all played as normal barre chords except you dont barre them... if that makes sense

eg. for C#m7

a 0
b 5
g 6
d 6
a 4
e 0


Add a comment/correction

Complimentary Christian Ringtones
Dadamobile and CGR have teamed up to bring your favorite Christian artists right to your phone. Sign up today and get 10 complementary ringtones!
Tab Country
Did you know CGR has a sister site w/ country guitar tabs? Well we do! Its called Tab Country. It has a great archive with a lot of country tabs.
Rockin Tabs
Are you looking for a site that has rock guitar tabs? Then Rockintabs.com is the place for you. It is a budding site with many rock guitar tabs. Submit your tab today.
Tab Gallery
Tab Gallery has a compilation of christian, rock, and country tabs all in one place. Come visit us.