Guitar Tabs
song title    band name

Join Us Today!

Don't strum alone...
be a part of the largest online Christian music community. Browse thousands of guitar tabs and chat w/ musicians like yourself.


It's Free!

Jars of Clay - Flood

This tab has been rated a 3.00 out of 5 for accuracy. (1 vote)Sorry, but you must be logged in to rate this tab.
Click here to log-in, or you can click here to register.
(Registration is free)

All songs owned by corresponding publishing company. If you make copies of any song on this website, be sure to report your usage to CCLI.
Submitted by: Emily Wimbish

Title:  Flood
Artist:  Jars of Clay
Copyright 1995 Bridgebuilding Music
All rights reserved



This is the violin or whatever solo before and during the bridge of Flood. 
There is a capo on the third fret, and it is tuned EABEBE instead of EADGBE.
Also, it's tabbed an octave or so lower than in the song.  The trickiest part
is to get the timing right when one sings and tabs this--or at least that's
what took me practice.  The second half (singing part) has one note that is
too high, but with the capo, it's impossible to get it correct.  Fortunately,
there's hardly any difference. Also, at the very end, things get sorta
confusing, but I simplified it for this and I think it works fine.  

All the flood tabs have everything but the violin so I decided--while learning
the song--to figure out this important part! 

 Hooray, purple finger-tips! Hooray, second tab!  Hooray, Jars of Clay!
  (:  I hope The tab works for everyone. 

e----------------------------------------------------------------
B-------------------------------------1-0-------0-0---------0-1-0
E-------------0-----0-1-3-1-0-------0-----5-3-5-----5-3-5-5------
B-------0-1-3---1-3-----------3-1-1------------------------------
A-0---0----------------------------------------------------------
E---4------------------------------------------------------------

e---------------------------------------------------------------
B---0-1-3-5-3-1-0-----------------------------------------------
E-5-------------------------------------------------0-3-1-0-----
B-----------------------1-0----------1-3-0--------1---------3-0-
A---------------------0------------0-------0----0---------------
E-------------------0-------3-0--0----------3-0-----------------
                   ^^^
                   ^^^this is where the singing starts)

Of course, it immidiately goes into the chorus.  I used the tab
by Andy Fischer for the rest.  It's an awesome song!  Hooray, Flood!

Tabbed by Emily Wimbish.

Comments about this tab

No comments/corrections found. Add your own

Complimentary Christian Ringtones
Dadamobile and CGR have teamed up to bring your favorite Christian artists right to your phone. Sign up today and get 10 complementary ringtones!
Tab Country
Did you know CGR has a sister site w/ country guitar tabs? Well we do! Its called Tab Country. It has a great archive with a lot of country tabs.
Rockin Tabs
Are you looking for a site that has rock guitar tabs? Then Rockintabs.com is the place for you. It is a budding site with many rock guitar tabs. Submit your tab today.
Tab Gallery
Tab Gallery has a compilation of christian, rock, and country tabs all in one place. Come visit us.