Guitar Tabs
song title    band name

Join Us Today!

Don't strum alone...
be a part of the largest online Christian music community. Browse thousands of guitar tabs and chat w/ musicians like yourself.


It's Free!

This tab has been rated a 4.20 out of 5 for accuracy. (5 votes)Sorry, but you must be logged in to rate this tab.
Click here to log-in, or you can click here to register.
(Registration is free)

All songs owned by corresponding publishing company. If you make copies of any song on this website, be sure to report your usage to CCLI.
Submitted by: yasdnil

Copeland
California

Tabbed by: Lindsay Kennedy
email: obeserulez@hotmail.com

Guitar 1 =Left Channel (acoustic rythm) 
Guitar 2 =Right Channel (lead) 
(Tabs for both Guitars correspond unless mentioned)

* = see below for notes

Intro

Guitar 2
e|---|
B|---|
G|-2-|
D|---|
A|---|
E|---|

Guitar 1
e|-x-x-x-x----x-x-----x-x-x-x----x-x-----|
B|-3-3-3-3----3-3-----3-3-3-3----3-3-----|
G|-0-0-0-0----0-0-----0-0-0-0----2-2-----|
D|-2-2-2-2----2-2-----2-2-2-2----0-0-----|
A|-3-3-3-3----3-3-----2-2-2-2------------|
E|-3-3-3-3----3-3-----0-0-0-0------------|
   v v^v v^ ^ v v ^ ^ v v^v v^ ^ v v ^ ^

Guitar 2
e|---------------------------------------|
B|---------3+--------------3---------3---|
G|-----0------(2)--------0-------0h2---2-|
D|---0---0-------------2-----2-0---------|
A|-3-------------------------------------|
E|---------------------------------------| x2



Verse
e|-x-x-x-x----x-x-----x-x-x-x----x-x-----|------x-|
B|-3-3-3-3----3-3-----3-3-3-3----3-3-----|-----3--|
G|-0-0-0-0----0-0-----0-0-0-0----2-2-----|----0---|
D|-2-2-2-2----2-2-----2-2-2-2----0-0-----|---2----|
A|-3-3-3-3----3-3-----2-2-2-2------------|--3*----|
E|-3-3-3-3----3-3-----0-0-0-0------------|-3------| x4
   v v^v v^ ^ v v ^ ^ v v^v v^ ^ v v ^ ^  
*play this the last time before pre-chorus

Guitar 2
e|---------------------------------------|----|
B|---------3+---------------3---------3--|----|
G|-----0------(2)--------0-------0h2---2-|----|
D|---0---0-------------2-----2-0---------|----|
A|-3-------------------------------------|-3*-|
E|---------------------------------------|----| x4
*play this the last time before pre-chorus (let ring)



Pre-chorus

Guitar 1
e|------------------------------x-------------x-|
B|------------3----------------3-------------3--|
G|-----------0----------------0-------------2---|
D|----------2----------------2-------------0----|
A|---------2----------------3-------------0-----|
E|--------0----------------3--------------------|

Guitar 2
e|------------------------------------------------0-0-0-0*-|
B|------------------------------------------------3-3-3-3--|
G|------------------------------------------------2-2-2-2--|
D|------------------------------------------------0-0-0-0--|
A|-2------------------------3------2------0-------0-0-0-0--|
E|--------0------------------------------------------------|
*strum this part lightly                          v v v^v  



Chorus

Guitar 1
e|-x-x-x-x-x-x-x-x--x-x-x-x-x-x-x-x--x-x-x-x-x-x-x-x--x|x-x-x-x-x-x-x-|
B|-3-3-3-3-3-3-3-3--3-3-3-3-3-3-3-3--3-3-3-3-3-3-3-3--3|3-3-3-3-3-3-3-|
G|-0-0-0-0-0-0-0-0--0-0-0-0-0-0-0-0--0-0-0-0-0-0-0-0--0|0-0-0-0-0-0-0-|
D|-0-0-0-0-0-0-0-0--2-2-2-2-2-2-2-2--2-2-2-2-2-2-2-2--2|2-2-2-2-2-2-2-|
A|-2-2-2-2-2-2-2-2--3-3-3-3-3-3-3-3--2-2-2-2-2-2-2-2--3|3-3-3-3-3-3-3-|
E|-3-3-3-3-3-3-3-3--x-x-x-x-x-x-x-x--0-0-0-0-0-0-0-0--x|x-x-x-x-x-x-x-| x2
   V v^v^V V^v^V v^ V v^v^V V^v^V v^ V v^v^V V^v^V v^ V v^v^V V^v^V v^        
second time through, don't play second bar

Guitar 2
e|------------------------3---3-3-3-----------------------------------|
B|---0----------------0-------0-0-0----0------------------------------|
G|-----2-0--------------2-----0-0-0------2-0--------------------------|
D|-----------------------------------2--------------------------------|
A|------------------3---------------------------------3---------------|
E|-3------------------------------------------------------------------| x2
                              v^v^v



Verse2

Guitar 1
e|-x-x-x-x----x-x-----x-x-x-x----x-x-----|------x-|
B|-3-3-3-3----3-3-----3-3-3-3----3-3-----|-----3--|
G|-0-0-0-0----0-0-----0-0-0-0----2-2-----|----0---|
D|-2-2-2-2----2-2-----2-2-2-2----0-0-----|---2----|
A|-3-3-3-3----3-3-----2-2-2-2------------|--3*----|
E|-3-3-3-3----3-3-----0-0-0-0------------|-3------| x4
   v v^v v^ ^ v v ^ ^ v v^v v^ ^ v v ^ ^  
*play this the last time before pre-chorus

Guitar 2 - another acoustic joins (acoustic guitar fills both L & R channels)
e|-x-x-x-x----x-x-----x-x-x-x----x-x-----|------x-|
B|-3-3-3-3----3-3-----3-3-3-3----3-3-----|-----3--|
G|-0-0-0-0----0-0-----0-0-0-0----2-2-----|----0---|
D|-2-2-2-2----2-2-----2-2-2-2----0-0-----|---2----|
A|-3-3-3-3----3-3-----2-2-2-2------------|--3*----|
E|-3-3-3-3----3-3-----0-0-0-0------------|-3------| x4
   v v^v v^ ^ v v ^ ^ v v^v v^ ^ v v ^ ^  
*play this the last time before pre-chorus (let ring)



Pre-chorus2

Guitar 1
e|-----x-----------x----------2-----------x--------x------------x-----------2-|
B|----3-----------3----------3-----------3--------3------------3-----------3--|
G|---0-----------0----------2-----------0--------0------------0-----------2---|
D|--2-----------2----------0-----------2--------2------------2-----------0----|
A|-2-----------3----------------------3--------2------------3-----------------|
E|------------3----------------------3---------------------3------------------|

e|-2-2-2-2-|
B|-3-3-3-3-|
G|-2-2-2-2-|
D|-0-0-0-0-|
A|---------|
E|---------|
   v v v^v

Guitar 2 - another acoustic joins (acoustic guitar fills both L&R channels)
e|-----x-----------x----------2-----------x--------x-------------x----------2-|
B|----3-----------3----------3-----------3--------3-------------3----------3--|
G|---0-----------0----------2-----------0--------0-------------0----------2---|
D|--2-----------2----------0-----------2--------2-------------2----------0----|
A|-2-----------3----------------------3--------2-------------3----------------|
E|------------3----------------------3----------------------3-----------------|


e|-2-2-2-2-|
B|-3-3-3-3-|
G|-2-2-2-2-|
D|-0-0-0-0-|
A|---------|
E|---------|
   v v v^v



Chorus

Guitar 1
e|-x-x-x-x-x-x-x-x--x-x-x-x-x-x-x-x--x-x-x-x-x-x-x-x--x|x-x-x-x-x-x-x-|
B|-3-3-3-3-3-3-3-3--3-3-3-3-3-3-3-3--3-3-3-3-3-3-3-3--3|3-3-3-3-3-3-3-|
G|-0-0-0-0-0-0-0-0--0-0-0-0-0-0-0-0--0-0-0-0-0-0-0-0--0|0-0-0-0-0-0-0-|
D|-0-0-0-0-0-0-0-0--2-2-2-2-2-2-2-2--2-2-2-2-2-2-2-2--2|2-2-2-2-2-2-2-|
A|-2-2-2-2-2-2-2-2--3-3-3-3-3-3-3-3--2-2-2-2-2-2-2-2--3|3-3-3-3-3-3-3-|
E|-3-3-3-3-3-3-3-3--x-x-x-x-x-x-x-x--0-0-0-0-0-0-0-0--x|x-x-x-x-x-x-x-| x2
   V v^v^V V^v^V v^ V v^v^V V^v^V v^ V v^v^V V^v^V v^ V v^v^V V^v^V v^
*on second time through, don't play second bar

Guitar 2
e|------------------------3---3-3-3-----------------------------------|
B|---0----------------0-------0-0-0----0------------------------------|
G|-----2-0--------------2-----0-0-0------2-0--------------------------|
D|-----------------------------------2--------------------------------|
A|------------------3---------------------------------3---------------|
E|-3------------------------------------------------------------------| x2
                              v^v^v



Bridge

Guitar 1
e|-xx--xx--xx---xx--xx--xx---xx--xx--xx---xx--xx--xx-|
B|-33--33--33---33--33--33---33--33--33---33--33--33-|
G|-00--00--00---00--00--00---00--00--00---22--22--22-|
D|-22--22--22---00--00--00---22--22--22---00--00--00-|
A|-33--33--33---22--22--22---22--22--22--------------|
E|-33--33--33---33--33--33---00--00--00--------------| x2
   vv^^vv^^vv^  vv^^vv^^vv^  vv^^vv^^vv^  vv^^vv^^vv^

Guitar 2
e|-------------------------------------------|
B|-------------------------------------------|
G|-------------------------------------------|
D|-5--7--9-10---12-----------5--7--9-10---7--|
A|-------------------------------------------|
E|-------------------------------------------|

e|-------------------------------------------|
B|-------------------------------------------|
G|-------------------------------------------|
D|-5--7--9-10---12-----------5--7--9---------|
A|-----------------------------------9----10-|
E|-------------------------------------------|



Outro

Guitar 1 - Becomes electric guitar w/distrotion
e|------------------------------------------------------------------|
B|------------------------------------------------------------------|
G|-5-5-5-5-5-5-5-5------------------5-5-5-5-5-5-5-5-----------------|
D|-5-5-5-5-5-5-5-5-2-2-2-4-4-5-5-5--5-5-5-5-5-5-5-5-2-2-2-4-4-5-5-5-|
A|-3-3-3-3-3-3-3-3-2-2-2-4-4-5-5-5--3-3-3-3-3-3-3-3-2-2-2-4-4-5-5-5-| x6
E|-3-3-3-3-3-3-3-3-0-0-0-2-2-3-3-3--3-3-3-3-3-3-3-3-0-0-0-2-2-3-3-3-|
   v v v v v v v v v v v v v v v v  v v v v v v v v v v v v v v v v

e|----|
B|----|
G|-5--|
D|-5--|
A|-3*-|
E|-3--|
*Let ring

Guitar 2 - distortion
e|------------------------------------------------------------------|
B|-------3-0-------------3-0-1h0----------3-0-----------------------|
G|-----0-------2-------0---------2------0-------2-------0-2-2-0-0---|
D|-2-4-------------2-4--------------2-4-------------2-4-----------4-|
A|------------------------------------------------------------------| x6
E|------------------------------------------------------------------|

e|----|
B|----|
G|----|
D|----|
A|-3*-|
E|----|
*Let ring

Comments about this tab

sarai - 2004-09-17

can somone do the chords for this song?


bloodylullaby - 2005-02-08

I noticed something about the end riff
e|----------------------------------|
B|-------3-0-------------3-0-1h0----|
G|-----0-------2-------0---------2--| it seems like that part is only played 2x
D|-2-4-------------2-4--------------| and the rest is the second part
A|----------------------------------|
E|----------------------------------|

------------------------------------|
----------3-0-----------------------|
--------0-------2-------0-2-2-0-0---|
----2-4-------------2-4-----------4-|(that part is played thru-out the whole
------------------------------------| song)
------------------------------------|


Add a comment/correction

Complimentary Christian Ringtones
Dadamobile and CGR have teamed up to bring your favorite Christian artists right to your phone. Sign up today and get 10 complementary ringtones!
Tab Country
Did you know CGR has a sister site w/ country guitar tabs? Well we do! Its called Tab Country. It has a great archive with a lot of country tabs.
Rockin Tabs
Are you looking for a site that has rock guitar tabs? Then Rockintabs.com is the place for you. It is a budding site with many rock guitar tabs. Submit your tab today.
Tab Gallery
Tab Gallery has a compilation of christian, rock, and country tabs all in one place. Come visit us.