Guitar Tabs
song title    band name

Join Us Today!

Don't strum alone...
be a part of the largest online Christian music community. Browse thousands of guitar tabs and chat w/ musicians like yourself.


It's Free!

This tab has been rated a 5.00 out of 5 for accuracy. (5 votes)Sorry, but you must be logged in to rate this tab.
Click here to log-in, or you can click here to register.
(Registration is free)

All songs owned by corresponding publishing company. If you make copies of any song on this website, be sure to report your usage to CCLI.
Submitted by: Mickey

Band : Mae
Song : Summertime
Album : Destination:Beautiful
tabbed by Alex Ramirez
flaco_04@yahoo.com

Intro
|---------------------------------|
|---------------------------------|
|---------------------------------|
|---9-0-99-0-9-0-99-0--55555------|
|---9-0-99-0-9-0-99-0--55555------|
|---9-0-99-0-9-0-99-0--55555------|

Verse
Summertime, summertime... // Here we are, Here we are...
|------------------------------------------------------|-------------|
|------------------------------------------------------|-------------|
|------------------------------------------------------|-------------|
|--00--00000-00-------*5------00--00000-00-------*5----|---x4--------|
|--00--00000-00--*5------*5---00--00000-00--*5------*5-|-------------|
|--00--00000-00-----*5--------00--00000-00-----*5------|-------------|
pm .. ..... .. .. ..... ..

then
|-----------------------------------------------------------------|--2nd time---|
|-----------------------------------------------------------------|-----add---|
|------------------------------------------------11-11-11-11------|------7----|
|--99--999955-5555-------*5------00--00000-00----0--0--0--0-------|------0----|
|--99--999955-5555--*5------*5---00--00000-00----0--0--0--0-------|------0----|
|--99--999955-5555-----*5--------00--00000-00----0--0--0--0-------|------0----|
pm .. ..... .... .. ..... ..
*=harmonics



Chorus
Go on a head and let it fade away...
|---------------------------------|
|---------------------------------|
|---------------------------------|
|---9-0-99-0-9-0-99-0--55555------|
|---9-0-99-0-9-0-99-0--55555------|
|---9-0-99-0-9-0-99-0--55555------|

|--------------------------------------|
|-----------------------------777777---|
|-----------------------------777777---|
|---9-0-99-0-9-0-99-0--55555--555555---|
|---9-0-99-0-9-0-99-0--55555-----------|
|---9-0-99-0-9-0-99-0--55555-----------|


Bridge
|------------------------------------------------------|
|------*7----------*7----------*7---------*7-----------|
|---*5----*7----*5----*7----*5----*7---*5----*7--------|
|------------------------------------------------------|
|------------------------------------------------------|
|------------------------------------------------------|

then
Drive it away...leavin it all behind.
|-----------------------------------------------------------------------------|
|-----------------------------------------------------------------------------|
|-----------------7-----------------7-----------------7-----------------7-----|
|-----9-----5---7-------9-----5---7-------9-----5---7-------9-----5---5-------|
|---9-----5---5-------9-----5---5-------9-----5---5-------9-----5---5---------|
|-9-----5-----------9-----5-----------9-----5-----------9-----5---------------|


oUTRO
DRIVE IT AWAY!!!! LEAVIN IT ALL BEHIND!!!
|-------------------------------------------------------|-------------|
|-------------------------------------------------------|-------------|
|--------------------------9999999--------6666666-------|-------------|
|-9999999---5555555--0000--0000000--0000--0000000-------|---x4--------|
|-9999999---5555555--0000--0000000--0000--0000000-------|-------------|
|-9999999---5555555--0000--0000000--0000--0000000-------|-------------|

GO!!!!
|-------------------------------------------|-------------|----Last-one---|
|-------------------------------------------|-------------|----ends-on----|
|--------------------------909760607--11----|-------------|-------0-------|
|-9999999---5555555--0000--000000000--0-----|---x4--------|-------0-------|
|-9999999---5555555--0000--000000000--0-----|-------------|-------0-------|
|-9999999---5555555--0000--000000000--0-----|-------------|-------0-------|


|---------------------------------------|
|---------------------------------------|
|------------------------------77777----|
|---9-0-99-0-9-0-99-0--55555---00000----|
|---9-0-99-0-9-0-99-0--55555---00000----|
|---9-0-99-0-9-0-99-0--55555---00000----|

Intro
Verse
Chorus
Verse
Choros
Bridge
Outro

this is my first tabbing so tell me if im wrong,think this is
perfect but email me if im wrong.

Comments about this tab

x1jackson - 2004-08-19

does anyone that paino part in the background during the verse


darkgeko - 2004-10-28

It sounds really sweet if you play the end like this . .

|-------------------------------------------
|-------------------------------------------
|-------------------------9-976-6-7/1414/7--
|-99999999---55555555--000000000000-0-0-----
|-99999999---55555555--000000000000-0-0-----
|-99999999---55555555--000000000000-0-0-----

I don't think it's how Mae plays it, but it sounds superb, none the less.


gregorykicks - 2005-04-20

First off, Great Job on the tab. Just a few quick things. In case somone didn't figure it out thtab is in drop d. I also have a few other things
I am almost positive this part near the end has a different last note (14 instead of 11)

GO!!!!
|-------------------------------------------|
|-------------------------------------------|
|--------------------------909760607--14----|
|-9999999---5555555--0000--000000000--0-----|
|-9999999---5555555--0000--000000000--0-----|
|-9999999---5555555--0000--000000000--0-----|

and the harmonics in the verse

are not

|------------------------------------------------------|
|------------------------------------------------------|
|------------------------------------------------------|
|--00--00000-00-------*5------00--00000-00-------*5----|
|--00--00000-00--*5------*5---00--00000-00--*5------*5-|
|--00--00000-00-----*5--------00--00000-00-----*5------|

I suggest either one of these. The problem with the first one is that your third string doesn't really ring a good harmonic so i suggest the second one

|--------------------------------------------------|
|--------------------------------------------------|
|--------------------------------------------------|
|--00--00000-00-------*3----00--00000-00-------*3--|
|--00--00000-00--*5---------00--00000-00--*5-------|
|--00--00000-00-----*5------00--00000-00-----*5----|

Or the one i suggest

|--------------------------*12-------------------------*12--|
|-----------------------------------------------------------|
|-----------------------------------------------------------|
|--00--00000-00--*7--*12--------00--00000-00--*7--*12-------|
|--00--00000-00-----------------00--00000-00----------------|
|--00--00000-00-----------------00--00000-00----------------|
Other than those things, a perfect tab. 5stars


Add a comment/correction

Complimentary Christian Ringtones
Dadamobile and CGR have teamed up to bring your favorite Christian artists right to your phone. Sign up today and get 10 complementary ringtones!
Tab Country
Did you know CGR has a sister site w/ country guitar tabs? Well we do! Its called Tab Country. It has a great archive with a lot of country tabs.
Rockin Tabs
Are you looking for a site that has rock guitar tabs? Then Rockintabs.com is the place for you. It is a budding site with many rock guitar tabs. Submit your tab today.
Tab Gallery
Tab Gallery has a compilation of christian, rock, and country tabs all in one place. Come visit us.