Guitar Tabs
song title    band name

Join Us Today!

Don't strum alone...
be a part of the largest online Christian music community. Browse thousands of guitar tabs and chat w/ musicians like yourself.


It's Free!

This tab has been rated a 4.00 out of 5 for accuracy. (1 vote)Sorry, but you must be logged in to rate this tab.
Click here to log-in, or you can click here to register.
(Registration is free)

All songs owned by corresponding publishing company. If you make copies of any song on this website, be sure to report your usage to CCLI.
Submitted by: Mickey

Soundtrack For Our Movie
Mae

drop D tuning

intro:

e|-----------
B|-----------
G|-----------
D|---0-------
A|---0-------
D|---0-x16---

verse: * - palm mute

e|------------------------------------------------------------
B|------------------------------------------------------------
G|------------------------------------------------------------
D|---0---------9---------5------2------9------7--5------------
A|---0---------9---------5------2------9------7--5------------
D|---0-x16-----9-x16-----5-x8---2-x8---9-x8---7--5------------
* * * * *

break pt 1:

e|-----------------------------------------
B|-----------------------------------------
G|-----------------------------------------
D|---7--7--7--7---7--7--7--7--9--9--7--7---
A|---5--5--5--5---5--5--5--5--9--9--7--7---
D|---4--4--5--5---4--4--5--5--9--9--7--7---

break pt 2:

e|-----------------------------------------
B|-----------------------------------------
G|----------------------------7--7--6------
D|---7--7--7--7---7--7--7--7--x--x--x--2---
A|---5--5--5--5---5--5--5--5--5--5--4--0---
D|---4--4--5--5---4--4--5--5---------------

chorus:

e|-----------------------------------------
B|-----------------------------------------
G|-----------------------------------------
D|---7--7--7--7---7--7--7--7--7--7--7--7---
A|---5--5--5--5---5--5--5--5--5--5--5--5---
D|---4--4--5--5---4--4--5--5--4--4--5--5---

e|-----------------------------------------
B|-----------------------------------------
G|-----------------------------------------
D|---7--7--7--7---7--7--7--7--7--7--7--7---
A|---5--5--5--5---5--5--5--5--7--7--7--7---
D|---4--4--5--5---4--4--5--5--7--7--7--7---

e|-----------------------------------------
B|-----------------------------------------
G|-----------------------------------------
D|---7--7--7--7---7--7--7--7--9--9--7--7---
A|---5--5--5--5---5--5--5--5--9--9--7--7---
D|---4--4--5--5---4--4--5--5--9--9--7--7---

e|----------------------
B|----------------------
G|-----------------7----
D|---7--7---9--9---5----
A|---7--7---9--9---5----
D|---7--7---9--9---5----

bridge pt 1:

e|----------10----------------------
B|-----7--8----8--7---8--10--8--7---
G|---0--------------7---------------
D|----------------------------------
A|----------------------------------
D|----------------------------------

bridge pt 2(solo 1):

e|----------5-2-2-0-2-0-----------------------------------2--2-----------2----5
B|5-7-5-7-3-------------2--3--2--3--2--0---7--7--3--------------3--0--3-----3--
G|-------------------------------------------------2--0------------------------
D|------------------------------------------------------4----------------------
A|-----------------------------------------------------------------------------
D|-----------------------------------------------------------------------------

outro solo pt 1:

e|-------------------------5------------------
B|-----7------7--8--7----------7h8p7----------
G|-----------------------------------9--7-----
D|0--5---0--5---------0--5---5----------------
A|--------------------------------------------
D|--------------------------------------------

outro solo pt 2:

e|---------------------10---------------------
B|-----7------7--8--7------7--8--10--8--7-----
G|--------------------------------------------
D|0--5---0--5------------0--------------------
A|--------------------------------------------
D|--------------------------------------------

song order:
intro x1
verse x2
break pt 1 x1
break pt 2 x1
break pt 1 x1
break pt 2 x1
verse x2
chorus x1
bridge pt 1 x4
bridge pt 2 x2
break pt 1 x1
verse x1
chorus x2
outro solo x4

if this is confusing, sorry... its a confusing song when laid out like this

Comments about this tab

onwardprogress - 2005-08-13

for the outro its easier to play it like this. same notes just different strings

e----------------------5-----------------
B-----7-----7-8-7-----------7h8--5-------
G----0-----0---------0-------------7-----
D--0-----0---------0------0--------------
A----------------------------------------
E----------------------------------------

e--------------------10--------------
B-----7-----7-8-7---------7-8-10--8-7
G----0-----0-------------------------
D--0-----0--------------0------------
A------------------------------------
E------------------------------------

the rest of the tab is amazing. great job.


shatteredshadow - 2006-09-23

amazing! lol...i love this tab. I spent all afternoon playing it this afternoon cuz i just got it. :) lol, good job.


archangel07 - 2006-10-06

sounds great man
but for the intro and the verse i only
play the first two strings instead of three
but it sounds great either way
good job, great song


Add a comment/correction

Complimentary Christian Ringtones
Dadamobile and CGR have teamed up to bring your favorite Christian artists right to your phone. Sign up today and get 10 complementary ringtones!
Tab Country
Did you know CGR has a sister site w/ country guitar tabs? Well we do! Its called Tab Country. It has a great archive with a lot of country tabs.
Rockin Tabs
Are you looking for a site that has rock guitar tabs? Then Rockintabs.com is the place for you. It is a budding site with many rock guitar tabs. Submit your tab today.
Tab Gallery
Tab Gallery has a compilation of christian, rock, and country tabs all in one place. Come visit us.