Guitar Tabs
song title    band name

Join Us Today!

Don't strum alone...
be a part of the largest online Christian music community. Browse thousands of guitar tabs and chat w/ musicians like yourself.


It's Free!

This tab has been rated a 3.00 out of 5 for accuracy. (1 vote)Sorry, but you must be logged in to rate this tab.
Click here to log-in, or you can click here to register.
(Registration is free)

All songs owned by corresponding publishing company. If you make copies of any song on this website, be sure to report your usage to CCLI.
Submitted by: Mickey

Goodbye, Goodnight
Mae

standard tuning

intro: 2 guitars

g1:

e|---------------------------------------------------------------------------
B|---------------------------------------------------------------------------
G|---------------------------------------------------------------------------
D|---4-4-4---4-4-4-4---------------------4-4-4---4-4-------------------------
A|---2-2-2-2-2-2-2-2-4-4-4-6-6-6-6-6-----2-2-2-2-2-2-4-4-2-2-2-2-2-2-2-2-----
E|---------0---------2-2-2-4-4-4-4-4-----------0-----2-2-0-0-0-0-0-0-0-0-----

g2: god how i hate that F# octave(9x11)

e|-----------------------------------------------------------------------------------
B|-----------------------------------------------------------------------------------
G|-11-11-11-4-11-11-11-11-6-6-6-11-11-11-11-11--11-11-11-4-11-11-6-6-4-4-4-4-4-4-4-4-
D|-x--x--x--x-x--x--x--x--x-x-x-x--x--x--x--x---x--x--x--x-x--x--x-x-x-x-x-x-x-x-x-x-
A|-9--9--9--2-9--9--9--9--4-4-4-9--9--9--9--9---9--9--9--2-9--9--4-4-2-2-2-2-2-2-2-2-
E|-----------------------------------------------------------------------------------

verse: pt 1 - clean acoustic or palm muted electric(how i play it)

e|---------------------------------------------------------------------------
B|---------------------------------------------------------------------------
G|---------------------------------------------------------------------------
D|---4-4-4---4-4-4-4---------------------4-4-4---4-4-------------------------
A|---2-2-2-2-2-2-2-2-4-4-4-6-6-6-6-6-----2-2-2-2-2-2-4-4-2-2-2-2-2-2-2-2-----
E|---------0---------2-2-2-4-4-4-4-4-----------0-----2-2-0-0-0-0-0-0-0-0-----

verse: pt 2 - guitars

g1: strum once

e|---2----------2----------2----------2-------------
B|---0----------0----------0----------0-------------
G|---3----------3----------3----------3-------------
D|---4----------4----------4----------4-------------
A|---x----------x----------x----------x-------------
E|---2----------0----------4----------0-------------

g2:

e|-----------2----------2----------2----------2-----
B|---------0----------0----------0----------0-------
G|-------3----------3----------3----------3---------
D|-----4----------4----------4----------4-----------
A|--------------------------------------------------
E|---2----------0----------4----------0-------------

chorus:

e|------------------------------------------------
B|------------------------------------------------
G|------------------------------------------------
D|---6------9-9-----------------------------------
A|---4-x8---6-7--9------9-9--2------9-9--6--------
E|---------------7-x6---6-7--0-x6---6-7--4-x8-----

end of chorus: * - palm mute(after 28 strums, let up on the palm mute)

e|-------------
B|-------------
G|-------------
D|-------------
A|---4---------
E|---2-x32-----
*

pre-breakdown:

e|---------------------------------------
B|---------------------------------------
G|---------------------------------------
D|---------------------------------------
A|---4--------2--------6--------2--------
E|---2-x8-----0-x8-----4-x8-----0-x8-----

breakdown:

e|------------------------------------------------------------------------------
B|------------------------------------------------------------------------------
G|---------------------------11-11-11-11-11-------------------------------11----
D|---------------------------x--x--x--x--x--------6-6-6-6-6-6-6-6---------x-----
A|---6-6-2-9-9-9-9-9---6-6-2-9--9--9--9--9----6-6-4-4-4-4-4-4-4-4---6-6-2-9-----
E|---4-4-0-7-7-7-7-7---4-4-0------------------4-4-------------------4-4-0-0-----

wow, if this doesnt look like the guitar tab for a pop punk song, i dont know
what does... heh

song order:
intro x2
verse pt 1 x2
verse pt 2 x1
intro x1
verse pt 1 x2
verse pt 2 x2
chorus x2
intro x2 - distortion, not palm muted - this is the "the nights are getting
warm again" part
pre-breakdown x2
breakdown

Comments about this tab

No comments/corrections found. Add your own

Complimentary Christian Ringtones
Dadamobile and CGR have teamed up to bring your favorite Christian artists right to your phone. Sign up today and get 10 complementary ringtones!
Tab Country
Did you know CGR has a sister site w/ country guitar tabs? Well we do! Its called Tab Country. It has a great archive with a lot of country tabs.
Rockin Tabs
Are you looking for a site that has rock guitar tabs? Then Rockintabs.com is the place for you. It is a budding site with many rock guitar tabs. Submit your tab today.
Tab Gallery
Tab Gallery has a compilation of christian, rock, and country tabs all in one place. Come visit us.