Guitar Tabs
song title    band name

Join Us Today!

Don't strum alone...
be a part of the largest online Christian music community. Browse thousands of guitar tabs and chat w/ musicians like yourself.


It's Free!

This tab has been rated a 4.50 out of 5 for accuracy. (4 votes)Sorry, but you must be logged in to rate this tab.
Click here to log-in, or you can click here to register.
(Registration is free)

All songs owned by corresponding publishing company. If you make copies of any song on this website, be sure to report your usage to CCLI.
Submitted by: Mickey

Mae
Embers and Envelopes

DROP D TUNING
Intro

E|10---7---7---7-----------10--7---7---7----------------
B|---8---8---8---8-8-7-7---------8---8---8-8-7/3--------
G|---------------0-0-0-0-----------------0-0-0-0--------
D|------------------------------------------------------
A|------------------------------------------------------
D|------------------------------------------------------

E|------------------------------------------------------
B|---7----------------------------3---------------------
G|---0----------------------------0---------------------
D|---x----------------------------x---------------------
A|---7-x16------------------------3-x16-----------------
D|------------------------------------------------------

VERSE x2
E|------------------------------------------------------
B|------------------------------------------------------
G|------------------------------------------------------
D|---5----------2----------10----------2----------------
A|---5----------2----------10----------2----------------
D|---5-x4-------2-x4-------10-x4-------2-x4-------------

on the second time, matt comes in with

E|------------------------------------------------------
B|---10--------7-----------3-----------7----------------
G|---0---------0-----------0-----------0----------------
D|---x---------x-----------x-----------x----------------
A|---10-x8-----7-x8--------3-x8--------7-x8-------------
D|------------------------------------------------------

CHORUS x2
E|------------------------------------------------------
B|------------------------------------------------------
G|------------------------------------------------------
D|---5---------9----------2----------10-----------------
A|---5---------9----------2----------10-----------------
D|---5-x4------9-x4-------2-x4-------10-x4--------------

matts chorus part(possibly... i have it as a second guitar part)

E|-----------------------------------------------------
B|---10--------3----------7----------3-----------------
G|---0---------0----------0----------0-----------------
D|---x---------x----------x----------x-----------------
A|---10-x4-----2-x4-------7-x4-------3-x4--------------
D|-----------------------------------------------------

BREAKDOWN
for the first 2 bars of the breakdown, just repeat the intro riff, then the
last 2 are:
E|----------------------------15-14--------------------
B|3----------3----------15-13-------15-----------------
G|0----------0-------------------------14--------------
D|x----------x-----------------------------------------
A|3-x12------3-x12-------------------------------------
D|-----------------------------------------------------

then... when dave sings embers and rob plays, these chords are just slid
back and forth, only pick the very first one of each time - x2(if you're
confused, just listen to the song, you can hear the chords slid back and
forth, but not picked)

E|-----------------------------------------------------
B|---10---\3----/7----\3-------------------------------
G|---0-----0-----0-----0-------------------------------
D|---x-----x-----x-----x-------------------------------
A|---10---\2----/7----\3-------------------------------
D|-----------------------------------------------------


Song order:
Intro
Verse x2
Chorus x2
Verse x2
Chorus x2
Breakdown
Chorus x4

Comments about this tab

Adam K - 2004-12-23

Awesome tab!! It rocks!! thanx man.


Add a comment/correction

Complimentary Christian Ringtones
Dadamobile and CGR have teamed up to bring your favorite Christian artists right to your phone. Sign up today and get 10 complementary ringtones!
Tab Country
Did you know CGR has a sister site w/ country guitar tabs? Well we do! Its called Tab Country. It has a great archive with a lot of country tabs.
Rockin Tabs
Are you looking for a site that has rock guitar tabs? Then Rockintabs.com is the place for you. It is a budding site with many rock guitar tabs. Submit your tab today.
Tab Gallery
Tab Gallery has a compilation of christian, rock, and country tabs all in one place. Come visit us.