Guitar Tabs
song title    band name

Join Us Today!

Don't strum alone...
be a part of the largest online Christian music community. Browse thousands of guitar tabs and chat w/ musicians like yourself.


It's Free!

Barnard, Shane - Prodigal Me

This tab has been rated a 4.50 out of 5 for accuracy. (2 votes)Sorry, but you must be logged in to rate this tab.
Click here to log-in, or you can click here to register.
(Registration is free)

All songs owned by corresponding publishing company. If you make copies of any song on this website, be sure to report your usage to CCLI.
Submitted by: jesseha

Prodigal Me 
Tabbed by : Jesse Ha
Author : Shane Barnard and Shane Everett

Put Capo on 2nd fret and move this whole tab up 2 frets

Intro (Live concert at the texas a & m) 

---5--5--5-----5--5--5------3---3--2h3h2-0--3--------------
----7--7--7---7-7--7--7------3---3-----------3-------3h5h3-
--7--7--7--7-6---6--6--6-0----0---0--------2--2---2h4------
-0----------------------------------------2----2h4---------
-----------------------------------------------------------
---------------------------3-------------------------------

---5--5--5-----5--5--5------3--3---2h3h2-0--3----------
----7--7--7---7-7--7--7------3--3------------3-----3-2-
--7--7--7--7-6---6--6--6---0--0--0---------2--2--------
-0----------------------------------------2-----2-2----
-------------------------------------------------------
--------------------------3----------------------------

Verse


---5--5--5-----5--5--5------3--3---2h3h2-0--3-----
----7--7--7---7-7--7--7------3--3------------3----
--7--7--7--7-6---6--6--6---0--0--0---------2--2---
-0----------------------------------------2-----2-
--------------------------------------------------
--------------------------3-----------------------

---5--5--5-----5--5--5------3--3---2h3h2-0----3----------
----7--7--7---7-7--7--7------3--3--------------3-----3-2-
--7--7--7--7-6---6--6--6---0--0--0-----------2--2--------
-0------------------------------------------2-----2-2----
---------------------------------------------------------
--------------------------3------------------------------

(Muted Strum)
-222-000-333-000----------------000-000-333-333---------
-333-333-333-333---------3h5h7--777-000-333-333-----3-2-
-444-222-222-222-----2h4--------000-666-000-222---------
-444-222-000-222-2h4------------000-777-000-222-2-2-----
-222-000-000-000----------------000-000-000-000---------
-222-000-333-000----------------777-555-333-000---------


Chorus

-222-000-333-000-
-333-333-333-333-
-222-222-222-222-
-000-222-000-222-
-000-000-000-000-
-000-000-333-000-

-222-000-333-000---------
-333-333-333-333---------
-222-222-222-222-----3-2-
-000-222-000-222-2-2-----
-000-000-000-000---------
-000-000-333-000---------

Verse

Chorus

(Muted Strum)
-222-000-333-000----------------000-000-333-333-
-333-333-333-333---------3h5h7--777-000-333-333-
-444-222-222-222-----2h4--------000-666-000-222-
-444-222-000-222-2h4------------000-777-000-222-
-222-000-000-000----------------000-000-000-000-
-222-000-333-000----------------777-555-333-000-

Chorus

This tab is much more accurate thant he ones on the siote

Comments about this tab

jesseha - 2006-01-08

Reverse picking is a pretty difficult technique. It looks like strumming but it isnt. so for the last 3 strings you would first hit the top of the 3 strings with a down picking then the second one with a down picking. then the last string with an up picking and the second one with an up picking. Then repeat. Thats the best way i can explain it. Its best to watch shane actually doing it


Kc06 - 2006-04-05

please rephrase the reverse strumming, im kinda confused


Add a comment/correction

Complimentary Christian Ringtones
Dadamobile and CGR have teamed up to bring your favorite Christian artists right to your phone. Sign up today and get 10 complementary ringtones!
Tab Country
Did you know CGR has a sister site w/ country guitar tabs? Well we do! Its called Tab Country. It has a great archive with a lot of country tabs.
Rockin Tabs
Are you looking for a site that has rock guitar tabs? Then Rockintabs.com is the place for you. It is a budding site with many rock guitar tabs. Submit your tab today.
Tab Gallery
Tab Gallery has a compilation of christian, rock, and country tabs all in one place. Come visit us.