Guitar Tabs
song title    band name

Join Us Today!

Don't strum alone...
be a part of the largest online Christian music community. Browse thousands of guitar tabs and chat w/ musicians like yourself.


It's Free!

Delirious - Did You Feel the Mountains Tremble

This tab has been rated a 3.20 out of 5 for accuracy. (5 votes)Sorry, but you must be logged in to rate this tab.
Click here to log-in, or you can click here to register.
(Registration is free)

All songs owned by corresponding publishing company. If you make copies of any song on this website, be sure to report your usage to CCLI.
Submitted by: ampedxpinoy

Did You Feel the Mountains Tremble
Delirious

this is the solo to Did you feel the mountains tremble......i think this is right
h=hammer on
/=slide

e14-12-10-7-10-7-10-14-12-10-12-7-14-12-10-7-10-7-2h3/10-2h3/10

i think this is right......contact me at amp3dxpinoy on AIM or ampedxpinoy@yahoo.com and tell me any feedback

Comments about this tab

LivingForGod - 2004-08-09

really good tab!
this is just a little suggestion that i think sounds better

e -14-12-10-7-10-7-14-12-10-12-7-14-12-10-7-10-7-2h3p2h3/10-2h3p2h3/10

its not a big change and again listen to the song for timing, but i think it sounds better


Pending - 2004-09-03

Hey great tab! I figured this out!!!

e 14-12-10-7-10-7-10-14-12-10-7-10-14-12-10-7-10-7-10-14-14-12-10-7-10-
B----------------------------------------------------------------------

e-14-12-10-12-----------14-12-15-14-10--------10-------10---
-------------12p10-12/15---------------7h8p7-7--7h8p7-7-----

Thats it if you figure out any more let me know
miko_a@msn.com Thanks!!


mws2001 - 2004-09-11

h = hammer
/ = slide
Q = quarter, E = eighth, . = dotted, W = whole note, S = sixteenth note

you should slide into most of the beginning of these phrases, and use hammer on/pull offs whenever possible (like the sixteenth note run)

Q. Q. Q. Q. Q E E Q. Q. W E E
|-14----12--------------------------14----12--------------------|
|-------------15----12----15--12h15-------------15--------12h15-|
|---------------------------------------------------------------|
|---------------------------------------------------------------|
|---------------------------------------------------------------|
|---------------------------------------------------------------|


Q. Q. Q. Q. Q Q a E Q a E Q Q a E Q a E H
|-14----12-------------------------------------------------------------------------|
|-------------15----12----15--15--------------------15-----------------------15----|
|---------------------------------11-/12-14--14-/16-----12--11-/12-14--14S16-------|
|----------------------------------------------------------------------------------|
|----------------------------------------------------------------------------------|
|----------------------------------------------------------------------------------|


Q. Q. Q. Q. Q E E Q. Q. Q. Q. S S S S S S
|-14----12--------------------------14----12----10----12----12-10--------------|
|-------------15----12----15--12h15-------------------------------12-10-10-12--|
|------------------------------------------------------------------------------|
|------------------------------------------------------------------------------|
|------------------------------------------------------------------------------|
|------------------------------------------------------------------------------|


Q Q. Q. Q. Q. H a E Q a E Q Q a E Q a E
|-10--14----12----15----14---------------------------------------------------|
|-----------------------------15--------------------15-----------------------|
|-----------------------------------11S12-14--14S16-----14--11S12-14--14S16--|
|----------------------------------------------------------------------------|
|----------------------------------------------------------------------------|
|----------------------------------------------------------------------------|


Add a comment/correction

Complimentary Christian Ringtones
Dadamobile and CGR have teamed up to bring your favorite Christian artists right to your phone. Sign up today and get 10 complementary ringtones!
Tab Country
Did you know CGR has a sister site w/ country guitar tabs? Well we do! Its called Tab Country. It has a great archive with a lot of country tabs.
Rockin Tabs
Are you looking for a site that has rock guitar tabs? Then Rockintabs.com is the place for you. It is a budding site with many rock guitar tabs. Submit your tab today.
Tab Gallery
Tab Gallery has a compilation of christian, rock, and country tabs all in one place. Come visit us.