Guitar Tabs
song title    band name

Join Us Today!

Don't strum alone...
be a part of the largest online Christian music community. Browse thousands of guitar tabs and chat w/ musicians like yourself.


It's Free!

This tab has not yet been rated for accuracy.Sorry, but you must be logged in to rate this tab.
Click here to log-in, or you can click here to register.
(Registration is free)

All songs owned by corresponding publishing company. If you make copies of any song on this website, be sure to report your usage to CCLI.
Northern Praise
Deuteronomium

Tabbed by: Kalle Paju
Tune down one step. (From low to high: D,G,C,F,A,D)

This tablature is arranged for one guitar.

 Intro (Chorus)
|------------------------------------------------|
|------------------------------------------------|
|------------------------------------------------|
|------------------------3-----------------------|
|3---------------5---7---5---5-5-5-5-5---3---2---|
|5---5-5-5-5-5-----------------------------------|
 , . . . . . , . . . . . , . . . . . , . . . . .

|------------------------------------------------|
|------------------------------------------------|
|------------------------------------------------|
|------------------------2-----------------------|
|2-----------2---3---5---3---3-3-3-3-3---2---0---|
|3---3-3-3-3-------------------------------------|
 , . . . . . , . . . . . , . . . . . , . . . . .

|------------------------------------------------|
|------------------------------------------------|
|------------------------------------------------|
|------------------------4-----------------------|
|3-----------0---2---3---2---2-2-2-2-2---3---5---|
|1---1-1-1-1-------------------------------------|
 , . . . . . , . . . . . , . . . . . , . . . . .

|------------------------------------------------|
|------------------------------------------------|
|------------------------------------------------|
|2-----------------------6-----------------------|
|3---3-3-3-3-3---2---0---7---7-7-7-7-7---5---3---|
|------------------------------------------------|
 , . . . . . , . . . . . , . . . . . , . . . . .

 Verse
|------------------------------------------------|
|------------------------------------------------|
|------------------------------------------------|
|------------------------------------------------|
|3-----------2-----------3-----------3-----------|
|5---5--5----3---3---3---1---1---1---1---1---1---|
 , . . . . . , . . . . . , . . . . . , . . . . .

|------------------------------------------------|
|------------------------------------------------|
|------------------------------------------------|
|3-----------3-----------------------------------|
|5---5---5---5---3---2---2-----------2-----------|
|------------------------3---3---3---3---3---3---|
 , . . . . . , . . . . . , . . . . . , . . . . .

|------------------------------------------------|
|------------------------------------------------|
|------------------------------------------------|
|------------------------------------------------|
|3-----------2-----------3-----------3-----------|
|5---5--5----3---3---3---1---1---1---1---1---1---|
 , . . . . . , . . . . . , . . . . . , . . . . .

|------------------------------------------------|
|------------------------------------------------|
|------------------------------------------------|
|3-----------3-----------6-----------6-----------|
|5---5---5---5---3---5---7---7---7---7---7---7---|
|------------------------------------------------|
 , . . . . . , . . . . . , . . . . . , . . . . .

 Bridge
|------------------------------------------------|
|------------------------------------------------|
|------------------------------------------------|
|------------------------------------------------|
|7---7---7---7---7---7---7---7---7---8---8---8---|
|5---5---5---5---5---5---5---5---5---6---6---6---|
 , . . . . . , . . . . . , . . . . . , . . . . .
 Three times:
|------------------------------------------------|
|------------------------------------------------|
|------------------------------------------------|
|------------------------------------------------|
|10--10--10--10--10--10--7---7---7---7---7---7---|
|8---8---8---8---8---8---5---5---5---5---5---5---|
 , . . . . . , . . . . . , . . . . . , . . . . .
 On the last time:
|------------------------------------------------|
|------------------------------------------------|
|------------------------------------------------|
|------------------------6-----------------------|
|10--10--10--10--10--10--7-----------------------|
|8---8---8---8---8---8---0-----------------------|
 , . . . . . , . . . . . , . . . . . , . . . . .

 Acoustic part

 Am  Dm  G  Cmaj7  Fmaj7  Bm  Esus E

 Am  Dm  G  Cmaj7  Fmaj7  Bm
                                              x2
|------------------------------------------------|
|------------------------------------------------|
|------------------------------------------------|
|------------------------------------------------|
|2---2---2---2---2---2---2---2---2---2---2---2---|
|0---0---0---0---0---0---0---0---0---0---0---0---|
 , . . . . . , . . . . . , . . . . . , . . . . .

 Solo1
|20--17------17--20--17--20--17------17--20--17-- 
|--------17----------------------17-------------- 
|------------------------------------------------ 
|------------------------------------------------ 
|------------------------------------------------ 
|------------------------------------------------ 
 ,   .   .   .   .   .   ,   .   .   .   .   .     

 22--17------17--22--17--22--17------17--20--17--|
 --------18----------------------18--------------|
 ------------------------------------------------|
 ------------------------------------------------|
 ------------------------------------------------|
 ------------------------------------------------|
 ,   .   .   .   .   .   ,   .   .   .   .   .     

|19--15------15--19--15--19--15------15--19--15-- 
|--------15----------------------15-------------- 
|------------------------------------------------ 
|------------------------------------------------ 
|------------------------------------------------ 
|------------------------------------------------ 
 ,   .   .   .   .   .   ,   .   .   .   .   .     

 20--15------15--20--15--20--15------15--19--15--|
 --------17----------------------17--------------|
 ------------------------------------------------|
 ------------------------------------------------|
 ------------------------------------------------|
 ------------------------------------------------|
 ,   .   .   .   .   .   ,   .   .   .   .   .     

|17--13------13--17--13--17--13------13--17--13-- 
|--------13----------------------13-------------- 
|------------------------------------------------ 
|------------------------------------------------ 
|------------------------------------------------ 
|------------------------------------------------ 
 ,   .   .   .   .   .   ,   .   .   .   .   .     

 19--14------14--19--14--19--14------14--19--14--|
 --------16----------------------16--------------|
 ------------------------------------------------|
 ------------------------------------------------|
 ------------------------------------------------|
 ------------------------------------------------|
 ,   .   .   .   .   .   ,   .   .   .   .   .     

|19--17------17--19--17--19--17------17--19--17--
|--------17----------------------17-------------- 
|------------------------------------------------ 
|------------------------------------------------ 
|------------------------------------------------ 
|------------------------------------------------ 
 ,   .   .   .   .   .   ,   .   .   .   .   .     

 19--16------16--19--16--19--16------16--19--16--|
 --------17----------------------17--------------|
 ------------------------------------------------|
 ------------------------------------------------|
 ------------------------------------------------|
 ------------------------------------------------|
 ,   .   .   .   .   .   ,   .   .   .   .   .     

|------------------------------------------------ 
|10--13--12--13--10--13--10--13--12--13--10--13-- 
|------------------------------------------------ 
|------------------------------------------------ 
|------------------------------------------------ 
|------------------------------------------------ 
 ,   .   .   .   .   .   ,   .   .   .   .   .     

 10--13--12--13--10--13--10--13--12--13--10--13--|
 ------------------------------------------------|
 ------------------------------------------------|
 ------------------------------------------------|
 ------------------------------------------------|
 ------------------------------------------------|
 ,   .   .   .   .   .   ,   .   .   .   .   .     

|------------------------------------------------ 
|8---12--10--12--8---12--8---12--10--12--8---12-- 
|------------------------------------------------ 
|------------------------------------------------ 
|------------------------------------------------ 
|------------------------------------------------ 
 ,   .   .   .   .   .   ,   .   .   .   .   .     

 8---12--10--12--8---12--8---12--10--12--8---12--|
 ------------------------------------------------|
 ------------------------------------------------|
 ------------------------------------------------|
 ------------------------------------------------|
 ------------------------------------------------|
 ,   .   .   .   .   .   ,   .   .   .   .   .     

|------------------------------------------------ 
|6---10--8---10--6---10--6---10--8---10--6---10-- 
|------------------------------------------------ 
|------------------------------------------------ 
|------------------------------------------------ 
|------------------------------------------------ 
 ,   .   .   .   .   .   ,   .   .   .   .   .     

 7---10--8---10--7---10--7---10--8---10--7---10--|
 ------------------------------------------------|
 ------------------------------------------------|
 ------------------------------------------------|
 ------------------------------------------------|
 ------------------------------------------------|
 ,   .   .   .   .   .   ,   .   .   .   .   .     

|5---8---7---8---5---8---5---8---7---8---5---8--- 
|------------------------------------------------ 
|------------------------------------------------ 
|------------------------------------------------ 
|------------------------------------------------ 
|------------------------------------------------ 
 ,   .   .   .   .   .   ,   .   .   .   .   .     
                                     +
 4---7---5---7---4---7---0-----------19----------|
 ------------------------------------------------|
 ------------------------------------------------|
 ------------------------------------------------|
 ------------------------------------------------|
 ------------------------------------------------|
 ,   .   .   .   .   .   ,   .   .   .   .   .     
 +               +       +               +
|20--17--12--17--20--17--20--17--12--17--20--17-- 
|------------------------------------------------ 
|------------------------------------------------ 
|------------------------------------------------ 
|------------------------------------------------ 
|------------------------------------------------ 
 ,   .   .   .   .   .   ,   .   .   .   .   .     
 +               +       +               +
 22--17--13--17--22--17--22--17--13--17--20--17--|
 ------------------------------------------------|
 ------------------------------------------------|
 ------------------------------------------------|
 ------------------------------------------------|
 ------------------------------------------------|
 ,   .   .   .   .   .   ,   .   .   .   .   .     
 +               +       +               +
|19--15--10--15--19--15--19--15--10--15--19--15-- 
|------------------------------------------------ 
|------------------------------------------------ 
|------------------------------------------------ 
|------------------------------------------------ 
|------------------------------------------------ 
 ,   .   .   .   .   .   ,   .   .   .   .   .     
 +               +       +               +
 20--15--12--15--20--15--20--15--12--15--19--15--|
 ------------------------------------------------|
 ------------------------------------------------|
 ------------------------------------------------|
 ------------------------------------------------|
 ------------------------------------------------|
 ,   .   .   .   .   .   ,   .   .   .   .   .     
 +               +       +               +
|17--13--8---13--17--13--17--13--8---13--17--13-- 
|------------------------------------------------ 
|------------------------------------------------ 
|------------------------------------------------ 
|------------------------------------------------ 
|------------------------------------------------ 
 ,   .   .   .   .   .   ,   .   .   .   .   .     
 +               +       +               +
 19--14--11--14--19--14--19--14--11--14--19--14--|
 ------------------------------------------------|
 ------------------------------------------------|
 ------------------------------------------------|
 ------------------------------------------------|
 ------------------------------------------------|
 ,   .   .   .   .   .   ,   .   .   .   .   .     
 +               +       +               +
|19--17--12--17--19--17--19--17--12--17--19--17--
|------------------------------------------------ 
|------------------------------------------------ 
|------------------------------------------------ 
|------------------------------------------------ 
|------------------------------------------------ 
 ,   .   .   .   .   .   ,   .   .   .   .   .     
 +               +       +               +
 19--16--12--16--19--16--19--16--12--16--19--16--|
 ------------------------------------------------|
 ------------------------------------------------|
 ------------------------------------------------|
 ------------------------------------------------|
 ------------------------------------------------|
 ,   .   .   .   .   .   ,   .   .   .   .   .     

|20--17--------------17--20--17--------------17-- 
|--------17------17--------------17------17------ 
|------------17----------------------17---------- 
|------------------------------------------------ 
|------------------------------------------------ 
|------------------------------------------------ 
 ,   .   .   .   .   .   ,   .   .   .   .   .     

 22--17--------------17--22--17--------------17--|
 --------18------18--------------18------18------|
 ------------19----------------------19----------|
 ------------------------------------------------|
 ------------------------------------------------|
 ------------------------------------------------|
 ,   .   .   .   .   .   ,   .   .   .   .   .     

|19--15--------------15--19--15--------------15-- 
|--------15------15--------------15------15------ 
|------------16----------------------16---------- 
|------------------------------------------------ 
|------------------------------------------------ 
|------------------------------------------------ 
 ,   .   .   .   .   .   ,   .   .   .   .   .     

 20--15--------------15--20--15--------------15--|
 --------17------17--------------17------17------|
 ------------17----------------------17----------|
 ------------------------------------------------|
 ------------------------------------------------|
 ------------------------------------------------|
 ,   .   .   .   .   .   ,   .   .   .   .   .     

|17--13--------------13--17--13--------------13-- 
|--------13------13--------------13------13------ 
|------------14----------------------14---------- 
|------------------------------------------------ 
|------------------------------------------------ 
|------------------------------------------------ 
 ,   .   .   .   .   .   ,   .   .   .   .   .     

 19--14--------------14--19--14--------------14--|
 --------16------16--------------16------16------|
 ------------16----------------------16----------|
 ------------------------------------------------|
 ------------------------------------------------|
 ------------------------------------------------|
 ,   .   .   .   .   .   ,   .   .   .   .   .     

|19--17--------------17--19--17--------------17-- 
|--------17------17--------------17------17------ 
|------------16----------------------16---------- 
|------------------------------------------------ 
|------------------------------------------------ 
|------------------------------------------------ 
 ,   .   .   .   .   .   ,   .   .   .   .   .     

 19--16--------------16--19--16--------------16--| 
 --------17------17--------------17------17------|
 ------------16----------------------16----------|
 ------------------------------------------------|
 ------------------------------------------------|
 ------------------------------------------------|
 ,   .   .   .   .   .   ,   .   .   .   .   .     

 Bridge2
|17---------------------------------------------- 
|------------------------------------------------ 
|------------------------------------------------ 
|------------------------2----------------------- 
|0---0---0---0---0---0---0----------------------- 
|------------------------------------------------ 
 ,   .   .   .   .   .   ,   .   .   .   .   .     

 8---5---7---5---8---5---10--7---8---7---10------| 
 ------------------------------------------------|
 ------------------------------------------------|
 ------------------------------------------------|
 ------------------------------------------------|
 ------------------------------------------------|
 ,   .   .   .   .   .   ,   .   .   .   .   .     

|------------------------------------------------ 
|------------------------------------------------ 
|------------------------------------------------ 
|------------------------5----------------------- 
|3---3---3---3---3---3---3----------------------- 
|------------------------------------------------ 
 ,   .   .   .   .   .   ,   .   .   .   .   .     
                                               x2
 12--8---13--8---12--8---10--8---12--8---10--8---| 
 ------------------------------------------------|
 ------------------------------------------------|
 ------------------------------------------------|
 ------------------------------------------------|
 ------------------------------------------------|
 ,   .   .   .   .   .   ,   .   .   .   .   .     

 Solo2
|------------------------------------------------|
|8--(10)---------------------------8(10)-8---5---|
|------------------------------------------------|
|------------------------------------------------|
|------------------------------------------------|
|------------------------------------------------|
 , . . . . . , . . . . . , . . . . . , . . . . .

|------------------------------------------------|
|------------------------------------------------|
|7(9)------------------------------7(9)----7-5---|
|----------------------------------------------7-|
|------------------------------------------------|
|------------------------------------------------|
 , . . . . . , . . . . . , . . . . . , . . . . .

|------------------------------------------------|
|------------------------------------------------|
|5-----------------------5-------------------5---|
|------------------7---------------------7-------|
|------------------------------------------------|
|------------------------------------------------|
 , . . . . . , . . . . . , . . . . . , . . . . .

|------------------------------------------------|
|------------------------------------------------|
|7(9)----7(9)----7(9)----7(9)--------------------|
|------------------------------------------------|
|------------------------------------------------|
|------------------------------------------------|
 , . . . . . , . . . . . , . . . . . , . . . . .

 +   +   +   +   +   +   +   +   +   +   +   +
|125812581258135813581358125812581258105810581058|
|------------------------------------------------|
|------------------------------------------------|
|------------------------------------------------|
|------------------------------------------------|
|------------------------------------------------|
 , . . . . . , . . . . . , . . . . . , . . . . .

 +   +   +   +   +   +   +   +   +   +   +   +
|1047104710471247124712471047104710478-478-478-47|
|------------------------------------------------|
|------------------------------------------------|
|------------------------------------------------|
|------------------------------------------------|
|------------------------------------------------|
 , . . . . . , . . . . . , . . . . . , . . . . .

 +   +   +   +   +   +   +   +   +   +   +   +
|8-158-158-151015101510158-158-158-157-047-047-04|
|------------------------------------------------|
-------------------------------------------------|
|------------------------------------------------|
|------------------------------------------------|
|------------------------------------------------|
 , . . . . . , . . . . . , . . . . . , . . . . .

 +   +   +   +   +   +        
|1258135812581058125810588-508-508-507-407-407-40|
|------------------------------------------------|
|------------------------------------------------|
|------------------------------------------------|
|------------------------------------------------|
|------------------------------------------------|
 , . . . . . , . . . . . , . . . . . , . . . . .

 , . . . . . , . . . . . , . . . . . , . . . . .
|5-----------------------------------------------|
|----5-------------------------------------------|
|--------6---------------------------------------|
|------------7-----------------------------------|
|----------------7-------------------------------|
|--------------------8---5-----------------------|
 , . . . . . , . . . . . , . . . . . , . . . . .

 , . . . . . , . . . . . , . . . . . , . . . . .
|------------------------------------------------|
|------------------------5---8-------------------|
|--------5-------5---7(9)--------7--(9)----------|
|----7-------7-----------------------------------|
|------------------------------------------------|
|------------------------------------------------|
 , . . . . . , . . . . . , . . . . . , . . . . .

 , . . . . . , . . . . . , . . . . . , . . . . .
|8-5-7-5-----8-5-7-5-----8-5-7-5-----8-5-7-5-----|
|--------8-5---------8-5---------8-5---------8-5-|
|------------------------------------------------|
|------------------------------------------------|
|------------------------------------------------|
|------------------------------------------------|
 , . . . . . , . . . . . , . . . . . , . . . . .
                         +
 , . . . . . , . . . . . , . . . . . , . . . . .
|------------------------------------------------|
|8(10)------------------(20)---------------------|
|------------------------------------------------|
|------------------------------------------------|
|------------------------------------------------|
|------------------------------------------------|
 , . . . . . , . . . . . , . . . . . , . . . . .

 , . . . . . , . . . . . , . . . . . , . . . . .
|------------------------------------5-------8---|
|----------------------------5-----------5-------|
|--------------------5-----------5---------------|
|------------7-----------7-----------------------|
|----7-----------7-------------------------------|
|5-------8---------------------------------------|
 , . . . . . , . . . . . , . . . . . , . . . . .

 , . . . . . , . . . . . , . . . . . , . . . . .
|----12--8---10--7-------------------------------|
|10------------------9---------------------------|
|------------------------10--7-------------------|
|--------------------------------9---------------|
|------------------------------------11----------|
|------------------------------------------------|
 , . . . . . , . . . . . , . . . . . , . . . . .

 , . . . . . , . . . . . , . . . . . , . . . . .
|--------------------------------------1617192019|
|--------------------------------151718----------|
|------------13141617161413141617----------------|
|------121415------------------------------------|
|121415------------------------------------------|
|------------------------------------------------|
 , . . . . . , . . . . . , . . . . . , . . . . .

 , . . . . . , . . . . . , . . . . . , . . . . .
|17----------------------------------------------|
|------------------------------------------------|
|------------------------------------------------|
|------------------------------------------------|
|------------------------------------------------|
|------------------------------------------------|
 , . . . . . , . . . . . , . . . . . , . . . . .

 And here's the rhythm part for solo2
|------------------------------------------------|
|------------------------------------------------|
|------------------------------------------------|
|------------2-----------------------2-----------|
|0-0-0-0-0-0-0-----------0-0-0-0-0-0-0-----------|
|------------------------------------------------|
 , . . . . . , . . . . . , . . . . . , . . . . .

|------------------------------------------------|
|------------------------------------------------|
|------------------------------------------------|
|------------5-----------------------5-----------|
|3-3-3-3-3-3-3-----------3-3-3-3-3-3-3-----------|
|------------------------------------------------|
 , . . . . . , . . . . . , . . . . . , . . . . .

|------------------------------------------------|
|------------------------------------------------|
|------------------------------------------------|
|------------------------------------------------|
|------------3-----------------------3-----------|
|1-1-1-1-1-1-1-----------1-1-1-1-1-1-1-----------|
 , . . . . . , . . . . . , . . . . . , . . . . .
 Three times:                                    
|------------------------------------------------|
|------------------------------------------------|
|------------------------------------------------|
|------------------------------------------------|
|------------5-----------------------5-----------|
|3-3-3-3-3-3-3-----------3-3-3-3-3-3-3-----------|
 , . . . . . , . . . . . , . . . . . , . . . . .
 On the last time:
|------------------------------------------------|
|------------------------------------------------|
|------------------------------------------------|
|------------------------------------------------|
|5-----------5-----------------------3-------3---|
|3-----------3-----------3---5---7-------7-------|
 , . . . . . , . . . . . , . . . . . , . . . . .

Comments about this tab

No comments/corrections found. Add your own

Complimentary Christian Ringtones
Dadamobile and CGR have teamed up to bring your favorite Christian artists right to your phone. Sign up today and get 10 complementary ringtones!
Tab Country
Did you know CGR has a sister site w/ country guitar tabs? Well we do! Its called Tab Country. It has a great archive with a lot of country tabs.
Rockin Tabs
Are you looking for a site that has rock guitar tabs? Then Rockintabs.com is the place for you. It is a budding site with many rock guitar tabs. Submit your tab today.
Tab Gallery
Tab Gallery has a compilation of christian, rock, and country tabs all in one place. Come visit us.