Guitar Tabs
song title    band name

Join Us Today!

Don't strum alone...
be a part of the largest online Christian music community. Browse thousands of guitar tabs and chat w/ musicians like yourself.


It's Free!

Lifehouse - Spin

This tab has been rated a 4.00 out of 5 for accuracy. (2 votes)Sorry, but you must be logged in to rate this tab.
Click here to log-in, or you can click here to register.
(Registration is free)

All songs owned by corresponding publishing company. If you make copies of any song on this website, be sure to report your usage to CCLI.
Submitted by: No Name Face

Artist: Lifehouse
Song: Spin
Album: Stanley Climbfall
Tabbed by: Daniel (d_yakel@hotmail.com)
Tunning: up half step (F A# D# G# C F)


Intro: (clean)  C  Am  Dm

Verse 1:(clean) C Am Dm C Am Dm Em F

Chorus: (dist)  C Am Dm Em F  C Am Dm Em F

Verse 2:(clean) C Am Dm C Am Dm Em F

Chorus: (dist)  C Am Dm C Am Dm Em F

Bridge: (guitar 2 and bass stay on C)

f [-----------------12-15------|
C [---13-------15----------14--|
G#[------12-13-----------------|
D#[----------------------------|
A#[----------------------------|
F [----------------------------| x2 (first half of bridge)

f [---------------12-15-16-----|
C [---13------15-----------18--|
G#[-----12-13------------------|
D#[----------------------------|
A#[----------------------------|
F [----------------------------| x2 (second half of bridge)

chorus:(clean)

guitar part: (this isn't really a solo but there's no vocals)

rythem and bass go through either chorus or verse chords not sure
think it's chorus though
(dist)
f [--------------------------------|
C [----5-5-6-5-6-5--5-5-5-6-5-6-5--|

G#[----5-5-5-5-5-5--5-5-5-5-5-5-5--|
D#[----5-5-5-5-5-5--5-5-5-5-5-5-5--|
A#[--------------------------------|
F [--------------------------------| 
that isn't exactly how they play it but it sounds ok

Chorus: (dist) C Am Dm Em F  C Am Dm Em F

outro: (dist)
this is the first part of the outro i think
(it souunds pretty good) I'm not sure bout the very end.

f [----------------------|
C [----------------------|
G#[---------5--------7---|
D#[---------5--------7---|
A#[----3h5p3----3h5p3----|
F [----------------------| do that several times

then the drums do this quick build and it changes but i don't know what
that is.  If you figure out the very end please submit it here or e-mail
the tab to me at d_yakel@hotmail.com and I will submit it.

Enjoy the song and keep listening to lifehouse!

P.S. I'm not positive about the order of the verses and chorus and bridge
and everything you just gotta listen to the CD and figure it out.

Comments about this tab

No comments/corrections found. Add your own

Complimentary Christian Ringtones
Dadamobile and CGR have teamed up to bring your favorite Christian artists right to your phone. Sign up today and get 10 complementary ringtones!
Tab Country
Did you know CGR has a sister site w/ country guitar tabs? Well we do! Its called Tab Country. It has a great archive with a lot of country tabs.
Rockin Tabs
Are you looking for a site that has rock guitar tabs? Then Rockintabs.com is the place for you. It is a budding site with many rock guitar tabs. Submit your tab today.
Tab Gallery
Tab Gallery has a compilation of christian, rock, and country tabs all in one place. Come visit us.