Guitar Tabs
song title    band name

Join Us Today!

Don't strum alone...
be a part of the largest online Christian music community. Browse thousands of guitar tabs and chat w/ musicians like yourself.


It's Free!

This tab has been rated a 1.17 out of 5 for accuracy. (6 votes)Sorry, but you must be logged in to rate this tab.
Click here to log-in, or you can click here to register.
(Registration is free)

All songs owned by corresponding publishing company. If you make copies of any song on this website, be sure to report your usage to CCLI.
Submitted by: Relientk_PRS

Song:Operation
Band:Relient K
Tabbed by:Ben Norberg
This is the Intro!


e:-----------------------------------------------------------------
B:-----------------------------------------------------------------
G:-----------------------------------------------------------------
D:----11-11--------11-11---------8-8--------4-4--------4-4---------
A:--9-------9----8-------8-----6-----6----2-----2----1-----1-------
E:-----------------------------------------------------------------


e:-----------------------------------------------------------------
B:-----------------------------------------------------------------
G:-----------------------------------------------------------------
D:----8-8--------4-4-------------6-------8-------------------------
A:--6-----6----2-----2--------------5-6----------------------------
E:-----------------------------------------------------------------

e:-----------------------------------------------------------------
B:-----------------------------------------------------------------
G:-----------------------------------------------------------------
D:----11-11--------11-11---------8-8--------4-4--------4-4---------
A:--9-------9----8-------8-----6-----6----2-----2----1-----1-------
E:-----------------------------------------------------------------


e:-----------------------------------------------------------------
B:-----------------------------------------------------------------
G:------------------------------11---------14/15-------------------
D:----8-8--------4-4----------------12/14--------------------------
A:--6-----6----2-----2---------------------------------------------
E:-----------------------------------------------------------------




Guitar #2 

Just plays F#(A root)

Thats about it for the intro, its not perfect but it was late when I
tabbed this, so if you have any suggestions, or you might, but don't
want to bother and waist your time telling me, cuz i dont' do that,
give me a ring at, relientk_gp@hotmail.com. Bye for now!

Comments about this tab

jacob09 - 2004-08-28

the tab starts off right but other than that it sounded bad.


bronxbomber - 2005-07-21

i took a shot at the intro ealier today. it sounds much better.


Add a comment/correction

Complimentary Christian Ringtones
Dadamobile and CGR have teamed up to bring your favorite Christian artists right to your phone. Sign up today and get 10 complementary ringtones!
Tab Country
Did you know CGR has a sister site w/ country guitar tabs? Well we do! Its called Tab Country. It has a great archive with a lot of country tabs.
Rockin Tabs
Are you looking for a site that has rock guitar tabs? Then Rockintabs.com is the place for you. It is a budding site with many rock guitar tabs. Submit your tab today.
Tab Gallery
Tab Gallery has a compilation of christian, rock, and country tabs all in one place. Come visit us.