Guitar Tabs
song title    band name

Join Us Today!

Don't strum alone...
be a part of the largest online Christian music community. Browse thousands of guitar tabs and chat w/ musicians like yourself.


It's Free!

This tab has not yet been rated for accuracy.Sorry, but you must be logged in to rate this tab.
Click here to log-in, or you can click here to register.
(Registration is free)

All songs owned by corresponding publishing company. If you make copies of any song on this website, be sure to report your usage to CCLI.
Blue Moment
Deuteronomium

Tabbed by: Kalle Paju
Tune down one step. (From low to high: D,G,C,F,A,D)

 Intro
|------------------------------------------------|
|------------------------------------------------|
|------------------------------------------------|
|4---4---4---4---4---4---4---4---4---4---4---4---|
|2---2---2---2---2---2---2---2---2---2---2---2---|
|------------------------------------------------|
 ,  .  .  .  ,  .  .  .  ,  .  .  .  ,  .  .  .

|------------------------------------------------|
|------------------------------------------------|
|------------------------------------------------|
|5---5---5---5---5---5---5---5---5---5---5---5---|
|3---3---3---3---3---3---3---3---3---3---3---3---|
|------------------------------------------------|
 ,  .  .  .  ,  .  .  .  ,  .  .  .  ,  .  .  .

 Verse
|------------------------------------------------|
|------------------------------------------------|
|10----------------------------------10--12--10--|
|------------------------------------------------|
|8-----------------------------------8---10--8---|
|------------------------------------------------|
|,  .  .  .  ,  .  .  .  ,  .  .  .  ,  .  .  .  |
|------------------------------------------------|
|------------------------------------------------|
|------------------------------------------------|
|3-----------3-----------3-----------3---5---3---|
|5---5-5-5-5-5---5-5-5-5-5---5-5-5-5-5---5---5---|
|------------------------------------------------|
 ,  .  .  .  ,  .  .  .  ,  .  .  .  ,  .  .  .

|------------------------------------------------|
|------------------------------------------------|
|9-----------------------------------------------|
|------------------------------------------------|
|7-----------------------------------------------|
|------------------------------------------------|
|,  .  .  .  ,  .  .  .  ,  .  .  .  ,  .  .  .  |
|------------------------------------------------|
|------------------------------------------------|
|------------------------------------------------|
|------------------------------------------------|
|3-----------3-----------3-----------3-----------|
|5---5-5-5-5-5---5-5-5-5-5---5-5-5-5-5---5-5-5-5-|
 ,  .  .  .  ,  .  .  .  ,  .  .  .  ,  .  .  .

|------------------------------------------------|
|------------------------------------------------|
|9-----------------------------------9---10--9---|
|------------------------------------------------|
|7-----------------------------------7---8---7---|
|------------------------------------------------|
|,  .  .  .  ,  .  .  .  ,  .  .  .  ,  .  .  .  |
|------------------------------------------------|
|------------------------------------------------|
|------------------------------------------------|
|2-----------2-----------2-----------2---3---2---|
|3---3-3-3-3-3---3-3-3-3-3---3-3-3-3-3---3---3---|
|------------------------------------------------|
 ,  .  .  .  ,  .  .  .  ,  .  .  .  ,  .  .  .

|------------------------------------------------|
|------------------------------------------------|
|7-----------------------------------------------|
|------------------------------------------------|
|5-----------------------------------------------|
|------------------------------------------------|
|,  .  .  .  ,  .  .  .  ,  .  .  .  ,  .  .  .  |
|------------------------------------------------|
|------------------------------------------------|
|------------------------------------------------|
|------------------------------------------------|
|2-----------2-----------2-----------2-----------|
|3---3-3-3-3-3---3-3-3-3-3---3-3-3-3-3---3-3-3-3-|
 ,  .  .  .  ,  .  .  .  ,  .  .  .  ,  .  .  .

 
|------------------------------------------------|
|------------------------------------------------|
|5-----------------------------------5---7---5---|
|------------------------------------------------|
|3-----------------------------------3---5---3---|
|------------------------------------------------|
|,  .  .  .  ,  .  .  .  ,  .  .  .  ,  .  .  .  |
|------------------------------------------------|
|------------------------------------------------|
|------------------------------------------------|
|------------------------------------------------|
|3-----------3-----------3-----------3---5---3---|
|5---5-5-5-5-5---5-5-5-5-5---5-5-5-5-5---5---5---|
 ,  .  .  .  ,  .  .  .  ,  .  .  .  ,  .  .  .

|------------------------------------------------|
|------------------------------------------------|
|4-----------------------------------------------|
|------------------------------------------------|
|2-----------------------------------------------|
|------------------------------------------------|
|,  .  .  .  ,  .  .  .  ,  .  .  .  ,  .  .  .  |
|------------------------------------------------|
|------------------------------------------------|
|------------------------------------------------|
|------------------------------------------------|
|2---2-2-2-2-2---2-2-2-2-2---2-2-2-2-2---2-2-2-2-|
|0---0-0-0-0-0---0-0-0-0-0---0-0-0-0-0---0-0-0-0-|
 ,  .  .  .  ,  .  .  .  ,  .  .  .  ,  .  .  .

|------------------------------------------------|
|------------------------------------------------|
|5-----------------------------------5---7---5---|
|------------------------------------------------|
|3-----------------------------------3---5---3---|
|------------------------------------------------|
|,  .  .  .  ,  .  .  .  ,  .  .  .  ,  .  .  .  |
|------------------------------------------------|
|------------------------------------------------|
|------------------------------------------------|
|------------------------------------------------|
|3---3-3-3-3-3---3-3-3-3-3---3-3-3-3-3---3---3---|
|5---5-5-5-5-5---5-5-5-5-5---5-5-5-5-5---5---5---|
 ,  .  .  .  ,  .  .  .  ,  .  .  .  ,  .  .  .

|------------------------------------------------|
|------------------------------------------------|
|9-----------------------------------------------|
|------------------------------------------------|
|7-----------------------------------------------|
|------------------------------------------------|
|,  .  .  .  ,  .  .  .  ,  .  .  .  ,  .  .  .  |
|------------------------------------------------|
|------------------------------------------------|
|------------------------------------------------|
|------------------------------------------------|
|7-----------7-----------7-----------7-----------|
|0---0-0-0-0-0---0-0-0-0-0---0-0-0-0-0---0-0-0-0-|
 ,  .  .  .  ,  .  .  .  ,  .  .  .  ,  .  .  .

 
|------------------------------------------------|
|------------------------------------------------|
|------------------------------------------------|
|3-------3---3---5---3---2-----------------------|
|----------------------------------------5---3---|
|------------------------------------------------|
|,  .  .  .  ,  .  .  .  ,  .  .  .  ,  .  .  .  |
|------------------------------------------------|
|------------------------------------------------|
|------------------------------------------------|
|3---3---3---3---3---3---------------------------|
|5---5---5---5---5---5---3---3---3---3---3---3---|
|------------------------5---5---5---5---5---5---|
 ,  .  .  .  ,  .  .  .  ,  .  .  .  ,  .  .  .

|------------------------------------------------|
|------------------------------------------------|
|------------------------------------------------|
|------------------------2-----------------------|
|5-------5---5---3---5-------------------5---3---|
|------------------------------------------------|
|,  .  .  .  ,  .  .  .  ,  .  .  .  ,  .  .  .  |
|------------------------------------------------|
|------------------------------------------------|
|------------------------------------------------|
|------------------------------------------------|
|5---5---5---5---5---5---2---2---2---2---2---2---|
|3---3---3---3---3---3---0---0---0---0---0---0---|
 ,  .  .  .  ,  .  .  .  ,  .  .  .  ,  .  .  .

|------------------------------------------------|
|------------------------------------------------|
|------------------------------------------------|
|3-------3---3---5---3---2-----------------------|
|----------------------------------------5---3---|
|------------------------------------------------|
|,  .  .  .  ,  .  .  .  ,  .  .  .  ,  .  .  .  |
|------------------------------------------------|
|------------------------------------------------|
|------------------------------------------------|
|3---3---3---3---3---3---------------------------|
|5---5---5---5---5---5---3---3---3---3---3---3---|
|------------------------5---5---5---5---5---5---|
 ,  .  .  .  ,  .  .  .  ,  .  .  .  ,  .  .  .

|------------------------------------------------|
|------------------------------------------------|
|------------------------------------------------|
|------------------------------------------------|
|5-----------------------------------------------|
|------------------------------------------------|
|,  .  .  .  ,  .  .  .  ,  .  .  .  ,  .  .  .  |
|------------------------------------------------|
|------------------------------------------------|
|------------------------------------------------|
|------------------------------------------------|
|5---5---5---5---5---5---5---5---5---5---5---5---|
|3---3---3---3---3---3---3---3---3---3---3---3---|
 ,  .  .  .  ,  .  .  .  ,  .  .  .  ,  .  .  .

|------------------------------------------------|
|------------------------------------------------|
|------------------------------------------------|
|3-------3---3---5---3---2-----------------------|
|----------------------------------------5---3---|
|------------------------------------------------|
|,  .  .  .  ,  .  .  .  ,  .  .  .  ,  .  .  .  |
|------------------------------------------------|
|------------------------------------------------|
|------------------------------------------------|
|3---3---3---3---3---3---------------------------|
|5---5---5---5---5---5---3---3---3---3---3---3---|
|------------------------5---5---5---5---5---5---|
 ,  .  .  .  ,  .  .  .  ,  .  .  .  ,  .  .  .

|------------------------------------------------|
|------------------------------------------------|
|------------------------------------------------|
|------------------------2---3---2---------------|
|5-------5---5---3---5---------------5---3---5---|
|------------------------------------------------|
|,  .  .  .  ,  .  .  .  ,  .  .  .  ,  .  .  .  |
|------------------------------------------------|
|------------------------------------------------|
|------------------------------------------------|
|------------------------------------------------|
|5---5---5---5---5---5---2---2---2---2---2---2---|
|3---3---3---3---3---3---0---0---0---0---0---0---|
 ,  .  .  .  ,  .  .  .  ,  .  .  .  ,  .  .  .

|------------------------------------------------|
|------------------------------------------------|
|------------------------------------------------|
|3-------3---3---5---3---2-----------------------|
|----------------------------------------5---3---|
|------------------------------------------------|
|,  .  .  .  ,  .  .  .  ,  .  .  .  ,  .  .  .  |
|------------------------------------------------|
|------------------------------------------------|
|------------------------------------------------|
|3---3---3---3---3---3---------------------------|
|5---5---5---5---5---5---3---3---3---3---3---3---|
|------------------------5---5---5---5---5---5---|
 ,  .  .  .  ,  .  .  .  ,  .  .  .  ,  .  .  .

|------------------------------------------------|
|------------------------------------------------|
|------------------------------------------------|
|5-----------------------------------------------|
|------------------------------------------------|
|------------------------------------------------|
|,  .  .  .  ,  .  .  .  ,  .  .  .  ,  .  .  .  |
|------------------------------------------------|
|------------------------------------------------|
|------------------------------------------------|
|------------------------------------------------|
|5---5---5---5---5---5---5---5---5---5---5---5---|
|3---3---3---3---3---3---3---3---3---3---3---3---|
 ,  .  .  .  ,  .  .  .  ,  .  .  .  ,  .  .  .

 Acoustic
|------------------------------------------------|
|------------0-----------------------0-----------|
|--------5-------5---------------5-------5-------|
|----7---------------7-------7---------------7---|
|0-----------------------0-----------------------|
|------------------------------------------------|
 ,  .  .  .  ,  .  .  .  ,  .  .  .  ,  .  .  .

|------------------------------------------------|
|------------0-----------------------0-----------|
|--------5-------5---------------5-------5-------|
|----7---------------7-------7---------------7---|
|0-----------------------0-----------------------|
|------------------------------------------------|
 ,  .  .  .  ,  .  .  .  ,  .  .  .  ,  .  .  .

|------------------------------------------------|
|------------0-----------------------0-----------|
|--------9-------9---------------9-------9-------|
|----10--------------10------10--------------10--|
|------------------------------------------------|
|8-----------------------8-----------------------|
 ,  .  .  .  ,  .  .  .  ,  .  .  .  ,  .  .  .

|------------------------------------------------|
|------------0-----------------------0-----------|
|--------10------10--------------10------10------|
|----12--------------12------12--------------12--|
|------------------------------------------------|
|10----------------------0-----------------------|
 ,  .  .  .  ,  .  .  .  ,  .  .  .  ,  .  .  .

 Chorus
|------------------------------------------------|
|------------------------------------------------|
|------------------------------------------------|
|------------------------------------------------|
|3---3---3---3---3---3---3---3---3---3---3---3---|
|5---5---5---5---5---5---5---5---5---5---5---5---|
 ,  .  .  .  ,  .  .  .  ,  .  .  .  ,  .  .  .

|------------------------------------------------|
|------------------------------------------------|
|------------------------------------------------|
|------------------------------------------------|
|5---5---5---5---5---5---5---5---5---5---5---5---|
|3---3---3---3---3---3---3---3---3---3---3---3---|
 ,  .  .  .  ,  .  .  .  ,  .  .  .  ,  .  .  .

|------------------------------------------------|
|------------------------------------------------|
|------------------------------------------------|
|2---2---2---2---2---2---2---2---2---2---2---2---|
|3---3---3---3---3---3---3---3---3---3---3---3---|
|------------------------------------------------|
 ,  .  .  .  ,  .  .  .  ,  .  .  .  ,  .  .  .

|------------------------------------------------|
|------------------------------------------------|
|------------------------------------------------|
|------------------------------------------------|
|2---2---2---2---2---2---2---2---2---2---2---2---|
|0---0---0---0---0---0---0---0---0---0---0---0---|
 ,  .  .  .  ,  .  .  .  ,  .  .  .  ,  .  .  .

Comments about this tab

No comments/corrections found. Add your own

Complimentary Christian Ringtones
Dadamobile and CGR have teamed up to bring your favorite Christian artists right to your phone. Sign up today and get 10 complementary ringtones!
Tab Country
Did you know CGR has a sister site w/ country guitar tabs? Well we do! Its called Tab Country. It has a great archive with a lot of country tabs.
Rockin Tabs
Are you looking for a site that has rock guitar tabs? Then Rockintabs.com is the place for you. It is a budding site with many rock guitar tabs. Submit your tab today.
Tab Gallery
Tab Gallery has a compilation of christian, rock, and country tabs all in one place. Come visit us.