Guitar Tabs
song title    band name

Join Us Today!

Don't strum alone...
be a part of the largest online Christian music community. Browse thousands of guitar tabs and chat w/ musicians like yourself.


It's Free!

Switchfoot - This Is Your Life

This tab has been rated a 4.00 out of 5 for accuracy. (5 votes)Sorry, but you must be logged in to rate this tab.
Click here to log-in, or you can click here to register.
(Registration is free)

All songs owned by corresponding publishing company. If you make copies of any song on this website, be sure to report your usage to CCLI.
Submitted by: iN|O\/ew/E|>i'S

This Is Your Life
Switchfoot

The intro or verses (w/ tons of fuzz-like distortion):

6th(low D)----2-------------2--------------------------
       5th--4----4----4--------4--------4--0--4-----2--
       4th----------2-------------2--------------------
       3rd---------------------------------------1-----

The chords for the chorus are: E B A

I learned this song on my new Les Paul !:)  Hope everyone enjoys it.

Comments about this tab

bc2skaterpunk - 2004-09-20

u have the tab upside down duh!


7thDayBassman - 2005-03-03

goodness, y doesnt anyone just put the chords up so i can giv them to my guitarists. please somebody put plain old chords up there to match the bass parts they have.


Fbar58 - 2005-09-21

dood you got the wrong tuning thats great that you have a lp.. but aparently it doesnt make you a good guitar player! lol just kidding...
3rd---------------------------------------1-----
4th----------2-------------2--------------------
5th--4----4----4--------4--------4--0--4-----2-
6th(Db(d flat)----2-------------2--------------------------

(6th(Db(d flat)----2-------------2--------------------------
5th--4----4----4--------4--------4--0--4-----2--
4th----------2-------------2--------------------
3rd---------------------------------------1-----)


Fbar58 - 2005-09-21

THIS IS THE RIGHT VERSION... sry i wasnt paying attention to that last post

dood you got the wrong tuning thats great that you have a lp.. but aparently it doesnt make you a good guitar player! lol just kidding...
G ---------------------------------------1-----
d ----------2-------------2--------------------
A --4----4----4--------4--------4--0--4-----2-
Db----0-------------0--------------------------


travishigg - 2005-10-02

ok, here's the REAL BASS INTRO!

G------9------9--------13---
D-11-11-11-11---11---11-----
A------------------12-----14
E---9-----9-----------------


neonboy - 2006-02-08

i don't know how to play this song and i know that what you tabbed is wrong
{no offense or anything but thats what i think}.


sportsman123 - 2006-07-26

heres the real intro
4 -----------------------------------------------
5 -----------------------------------------6-----
6 --4--4---7--4---4---4---7-----4---0---0-------2
hope it's right


sportsman123 - 2006-07-26

^the one above is for guitar NOT BASS


underoathlover - 2006-10-14

way 2 confusing...its upside down


5isakoolnumber - 2007-03-30

im lost!!!!!!!!!!
its upside down!


Add a comment/correction

Complimentary Christian Ringtones
Dadamobile and CGR have teamed up to bring your favorite Christian artists right to your phone. Sign up today and get 10 complementary ringtones!
Tab Country
Did you know CGR has a sister site w/ country guitar tabs? Well we do! Its called Tab Country. It has a great archive with a lot of country tabs.
Rockin Tabs
Are you looking for a site that has rock guitar tabs? Then Rockintabs.com is the place for you. It is a budding site with many rock guitar tabs. Submit your tab today.
Tab Gallery
Tab Gallery has a compilation of christian, rock, and country tabs all in one place. Come visit us.