Guitar Tabs
song title    band name

Join Us Today!

Don't strum alone...
be a part of the largest online Christian music community. Browse thousands of guitar tabs and chat w/ musicians like yourself.


It's Free!

Barnard, Shane - Glory

This tab has been rated a 5.00 out of 5 for accuracy. (1 vote)Sorry, but you must be logged in to rate this tab.
Click here to log-in, or you can click here to register.
(Registration is free)

All songs owned by corresponding publishing company. If you make copies of any song on this website, be sure to report your usage to CCLI.
Submitted by: Beefcake

Glory
Shane Barnard

The song on the site is wrong in some spots. Just wanted to clear it up.

Partial Capo on 2.

The intro riff:
e-----0------0-------0-----0-------0-------0-----0-----0-----0-----------------
B-------0------0-------------0-------0-------------0-----0---------------------
G-6h7-----6h7----6h7---6h7-----6h7-----6h7---6\2-----2-----2-------------------
D------------------------------------------------------------------------------
A------------------------------------------------------------------------------
E------------------------------------------------------------------------------

e-----0-------0-----------------7*---------------------------------------------
B-------0-------0---------------7*---------------------------------------------
G-------------------------------7*---------------------------------------------
D-4h5-----4h5-----4h5p4/2-------7*---------------------------------------------
A-------------------------------7*---------------------------------------------
E-------------------------------7*---------------------------------------------

Verse:
e-0-0---5-3-2-0-----0---------5*-------------------------------0---0--0--0-----
B-0---0---------------0-------------------------0-----------0--0---0--0--0-----
G-2----------------------------------0--------0-------0--------0---0--0--0-----
D-0-------------0h2-----2/4-0----------0--0h2------------------0---0--0--0-----
A-0------------------------------0h2---------------0h2--2/5----0---0--0--0-----
E-0------------------------------------------------------------5/2-2--2--2-----

Chorus:

E B A  

a few times, then stop. Beat on the guitar a bit. And go back into the
verse riff.  Just listen to it and you'll get what I mean. 8)

Bridge:

F#m  A 

a few times then go back into the chorus.  Then at the end, beat on the guitar
some more and then it'll sound just like Shane.  Hope this helps 8).

Chords: All chords relative to partial capo on 2.

E   - 000200
A   - 320000
B   - 002200
F#m - 022000

Comments about this tab

No comments/corrections found. Add your own

Complimentary Christian Ringtones
Dadamobile and CGR have teamed up to bring your favorite Christian artists right to your phone. Sign up today and get 10 complementary ringtones!
Tab Country
Did you know CGR has a sister site w/ country guitar tabs? Well we do! Its called Tab Country. It has a great archive with a lot of country tabs.
Rockin Tabs
Are you looking for a site that has rock guitar tabs? Then Rockintabs.com is the place for you. It is a budding site with many rock guitar tabs. Submit your tab today.
Tab Gallery
Tab Gallery has a compilation of christian, rock, and country tabs all in one place. Come visit us.