Guitar Tabs
song title    band name

Join Us Today!

Don't strum alone...
be a part of the largest online Christian music community. Browse thousands of guitar tabs and chat w/ musicians like yourself.


It's Free!

Jars of Clay - Crazy Times

This tab has not yet been rated for accuracy.Sorry, but you must be logged in to rate this tab.
Click here to log-in, or you can click here to register.
(Registration is free)

All songs owned by corresponding publishing company. If you make copies of any song on this website, be sure to report your usage to CCLI.
Submitted by: jar of clay

Crazy Times
Jars of Clay

The chords on the other tab are perfect as far as I can tell, but the solo
just doesn't do it.  Here is the correct version:

e|-16-----------------------------------------------------------------------|
b|-20-(about 6 times)-17b---------------------------------------------------|
g|------------------------16-------------------14h16-16h18-18-19-19-21-21b--|
d|---------------------------16-14------------------------------------------|
a|---------------------------------16p14p12-14------------------------------|
e|--------------------------------------------------------------------------|


And I'll tell ya what, I'm in a good mood so I'll give ya some other lead
parts in the song.  This is done once or twice in the song, nice and simple:

e|--14---14---|
b|--17b--17b--|


And here's a little part at the end which is played on a mandolin or a banjo
or something wierd like that, but if you're playing lead in this song its
kinda fun to play it on guitar.

e|-2-0-2---2-4-5-4-2---0-----0------------|
b|-----------------------2-0---2----------|
g|----------------------------------------|
d|---------------------------------0------|
a|-----------------------------------2-4--|
e|----------------------------------------|

any questions, comments, tab requests (I know lots of Jars of Clay and I'd
be happy to send any to you), send to ragingdaniel@hotmail.com

Comments about this tab

No comments/corrections found. Add your own

Complimentary Christian Ringtones
Dadamobile and CGR have teamed up to bring your favorite Christian artists right to your phone. Sign up today and get 10 complementary ringtones!
Tab Country
Did you know CGR has a sister site w/ country guitar tabs? Well we do! Its called Tab Country. It has a great archive with a lot of country tabs.
Rockin Tabs
Are you looking for a site that has rock guitar tabs? Then Rockintabs.com is the place for you. It is a budding site with many rock guitar tabs. Submit your tab today.
Tab Gallery
Tab Gallery has a compilation of christian, rock, and country tabs all in one place. Come visit us.