Guitar Tabs
song title    band name

Join Us Today!

Don't strum alone...
be a part of the largest online Christian music community. Browse thousands of guitar tabs and chat w/ musicians like yourself.


It's Free!

Relient K - From End to End

This tab has been rated a 4.33 out of 5 for accuracy. (6 votes)Sorry, but you must be logged in to rate this tab.
Click here to log-in, or you can click here to register.
(Registration is free)

All songs owned by corresponding publishing company. If you make copies of any song on this website, be sure to report your usage to CCLI.
Submitted by: Handsome

Title:From End to End
Artist:Relient K
Album:Two Lefts
2003 gotee records

Hey guys. This is a great song. I love it.

Intro:

Riff 1
e----------------------------------------------------------------
B----------------------------------------------------------------
G----------------------------------------------------------------
D----------------------------------------------------------------
A--s10-10-10-10-10-10-10-10-10-10-10-10-10-10-10-10-10-9---------
E----------------------------------------------------------------

Em Bm D C# C G D        I'm not really sure about the lead part here...

Verse:

[Em Bm D C# Em Bm D C#] C G D  x2
      [palm muted]

Pre-Chorus (hey,hey...):

Em C G D C D

Chorus:

A-10-10-10-10-10-10-10-10-10-9

G [C G C] D Em G 
    [pm]
C G D C C G

Riff 2
e-3--2--3--3------------------------
B--3--3--3--3-----------------------
G---0--0--0--0----------------------
D-----------------------------------  (And then you'll...)
A-----------------------------------
E-----------------------------------

Intro (Discluding Riff 1)

Verse

Pre-Chorus

Chorus

Instrumental Thing:

Em C   G Am Em Em x3  G Am Em-G

Chorus (a little different this time):

C G D C C G Am Em C G D C C G

Riff 2 x3

During the 3 times Riff 2 is played play this on guitar 2:

e-----------------   Then  e----
B--------------12-         B----
G---------12-11---         G----
D-14-12-10--------         D----
A-----------------         A-14~
E-----------------         E----
Listen to the CD to figure it out.

Then 
e-3--2---
B--3--3--
G---0--0-

End with Em

                   Have fun
                       Later,
                           Ken A.K.A. Handsome
                              Questions? Email me at 
                                  ha_thats_mildly_amusing@hotmail.com

Comments about this tab

Spike Lee - 2005-02-05

This is like the time i played the guitar and it reminded me that i did it. Good tabs man.


relient_k_evin - 2005-05-06

ha that's mildly amusing. i'm glad that you remember playing your guitar the time you played it, because i sure can't.


Add a comment/correction

Complimentary Christian Ringtones
Dadamobile and CGR have teamed up to bring your favorite Christian artists right to your phone. Sign up today and get 10 complementary ringtones!
Tab Country
Did you know CGR has a sister site w/ country guitar tabs? Well we do! Its called Tab Country. It has a great archive with a lot of country tabs.
Rockin Tabs
Are you looking for a site that has rock guitar tabs? Then Rockintabs.com is the place for you. It is a budding site with many rock guitar tabs. Submit your tab today.
Tab Gallery
Tab Gallery has a compilation of christian, rock, and country tabs all in one place. Come visit us.