Guitar Tabs
song title    band name

Join Us Today!

Don't strum alone...
be a part of the largest online Christian music community. Browse thousands of guitar tabs and chat w/ musicians like yourself.


It's Free!

This tab has not yet been rated for accuracy.Sorry, but you must be logged in to rate this tab.
Click here to log-in, or you can click here to register.
(Registration is free)

All songs owned by corresponding publishing company. If you make copies of any song on this website, be sure to report your usage to CCLI.
Submitted by: Rainer.

GOOD INTENTIONS
Slick Shoes
WAKE UP SCREAMING

 Intro

  Gtr II
|-----------|-----------|--------------|---------------|
|-----------|-----------|--------------|---------------|
|-----------|-----------|--------0-----|--------0------|
|-5-------5-|-4-------4-|-5--5-------5-|-4--4-------4--|
|-7-------7-|-5-------5-|-7----7-----7-|-5----5-----5--|
|-----------|-----------|--------------|---------------|
|
| Gtr I
|-----------|-----------|--------------|---------------|
|-----------|-----------|--------------|---------------|
|-----------|-----------|--------------|---------------|
|-----------|-----------|--------------|---------------|
|-----------|-----------|-7----------7-|-5----------5--|
|-----------|-----------|--------------|---------------|


|--------------|-----------------|---------------|
|--------------|-----------------|---------------|
|--------0-----|--------0--------|--------0------|
|-5--5-------5-|-4--4----------4-|-5--5-------5--|
|-7----7-----7-|-5----5--------5-|-7----7-----7--|
|--------------|-----------------|---------------|
|
|--------------|-----------------|---------------|
|--------------|-----------------|---------------|
|--------------|-----------------|---------------|
|--------------|-5--------4--0---|---------------|
|-7----------7-|-----------------|-7----------7--|
|--------------|-----------------|---------------|


|--------------|--------------|------------------|
|--------------|--------------|------------------|
|--------0-----|--------0-----|--------0---------|
|-4--4-------4-|-5--5-------5-|-4--4----------4--|
|-5----5-----5-|-7----7-----7-|-5----5--------5--|
|--------------|--------------|------------------|
|
|--------------|--------------|------------------|
|--------------|--------------|------------------|
|--------------|--------------|------------------|
|--------------|--------------|-5--------4--0----|
|-5----------5-|-7----------7-|------------------|
|--------------|--------------|------------------|


 Verse
  Gtr I
|---------------------------------|---------------------------------|
|---------------------------------|---------------------------------|
|---------------------------------|---------------------------------|
|-5-5-5---------------------------|-4-4-4---------------------------|
|-7-7-7---------------------------|-5-5-5---------------------------|
|---------------------------------|---------------------------------|
|
| Gtr II (rapidly palm muted and released)
|---------------------------------|---------------------------------|
|---------------------------------|---------------------------------|
|---------------------------------|---------------------------------|
|-5-5-5-5-5-5-5-5-7-5-5-5-5-7-5-4-|-4-4-4-4-4-4-4-4-4-4-4-4-4-4-4-4-|
|-7-7-7-7-7-7-7-7-7-7-7-7-7-7-7-5-|-5-5-5-5-5-5-5-5-5-5-5-5-5-5-5-5-|
|---------------------------------|---------------------------------|


|---------------------------------|---------------------------------|
|---------------------------------|---------------------------------|
|---------------------------------|---------------------------------|
|-2-2-2---------------------------|-4-4-4-4-4-4-4-4-4-4-4-4-4-4-4-4-|
|-3-3-3---------------------------|-5-5-5-5-5-5-5-5-5-5-5-5-5-5-5-5-|
|---------------------------------|---------------------------------|
|
|---------------------------------|---------------------------------|
|---------------------------------|---------------------------------|
|---------------------------------|---------------------------------|
|-2-2-2-2-2-2-2-2-2-2-2-2-2-2-2-2-|-4-4-4-4-4-4-4-4-4-4-4-4-4-4-4-4-|
|-3-3-3-3-3-3-3-3-3-3-3-3-3-3-3-3-|-5-5-5-5-5-5-5-5-5-5-5-5-5-5-5-5-|
|---------------------------------|---------------------------------|


|---------------------------------|---------------------------------|
|---------------------------------|---------------------------------|
|---------------------------------|---------------------------------|
|-5-5-5-5-5-5-5-5-5-5-5-5-5-5-5-5-|-7-7-7-7-7-7-7-7-7-7-7-7-7-7-7-7-|
|-7-7-7-7-7-7-7-7-7-7-7-7-7-7-7-7-|-5-5-5-5-5-5-5-5-5-5-5-5-5-5-5-5-|
|---------------------------------|---------------------------------|
|
|---------------------------------|---------------------------------|
|---------------------------------|---------------------------------|
|---------------------------------|---------------------------------|
|-5-5-5-5-5-5-5-5-5-5-5-5-5-5-5-5-|-4-4-4-4-4-4-4-4-4-4-4-4-4-4-4-4-|
|-7-7-7-7-7-7-7-7-7-7-7-7-7-7-7-7-|-5-5-5-5-5-5-5-5-5-5-5-5-5-5-5-5-|
|---------------------------------|---------------------------------|


                                                                 
|---------------------------------|-------------------------|
|---------------------------------|-------------------------|
|---------------------------------|-----------------7-7-7-7-|
|-5-5-5-5-5-5-5-5-5-5-5-5-5-5-5-5-|-7-7-7-7-7-7-7-7---------|
|-3-3-3-3-3-3-3-3-3-3-3-3-3-3-3-3-|-5-5-5-5-5-5-5-5-5-5-5-5-|
|---------------------------------|-------------------------|
|
|---------------------------------|-------------------------|
|---------------------------------|-------------------------|
|---------------------------------|-------------------------|

|-2-2-2-2-2-2-2-2-2-2-2-2-2-2-2-2-|-4-4-4-4-4-4-4-4-5-5-5-4-|
|-3-3-3-3-3-3-3-3-3-3-3-3-3-3-3-3-|-5-5-5-5-5-5-5-5-5-5-5-5-|
|---------------------------------|-------------------------|

Chorus
||-------------------------------------------------|
||---8-----------7-----------8-----------10--------|
||-------------------------------------------------|
||---5-----------4-----------5------------7--------|
||-------------------------------------------------|
||-------------------------------------------------|
|
||-------------------------------------------------|
||-------------------------------------------------|
||-------------------------------------------------|
||---5--5-5-5-5-----5-5-5-5-----5-5-5-5------5-5-5-|
||---7--7-7-7-7-----7-7-7-7-----7-7-7-7------7-7-7-|
||-------------------------------------------------|


|------------------------------------------------------|
|--8-------8-------10-----12---------10---------7------|
|------------------------------------------------------|
|--5-------5--------7------9----------7---------4------|
|------------------------------------------------------|
|------------------------------------------------------|
|
|------------------------------------------------------|
|------------------------------------------------------|
|------------------------------------------------------|
|--7--7-7--7--7-7---7--7--10--10-10--10--10-10-10--10--|
|--5--5-5--5--5-5---5--5--10--10-10--10--10-10-10--10--|
|--------------------------8---8--8---8---8--8--8---8--|

play 4x

Bridge
Both Guitars
|---------------------------------|-------------------------------|
|---------------------------------|-------------------------------|
|---------------------------------|-------------------------------|
|-2-2-2-2-2-2-2-2-5-5-5-5-5-5-5-5-|-4-4-4-4-4-4-4-4-5-5-5-5-5-7-7-|
|-2-2-2-2-2-2-2-2-5-5-5-5-5-5-5-5-|-5-5-5-5-5-5-5-5-5-5-5-5-5-7-7-|
|-0-0-0-0-0-0-0-0-3-3-3-3-3-3-3-3-|-2-2-2-2-2-2-2-2-3-3-3-3-3-5-5-|


|---------------------------------|---------------------------------|
|---------------------------------|---------------------------------|
|---------------------------------|---------------------------------|
|-2-2-2-2-2-2-2-2-5-5-5-5-5-5-5-5-|-4-4-4-4-4-4-4-4-5-5-5-5-4-4-4-4-|
|-2-2-2-2-2-2-2-2-5-5-5-5-5-5-5-5-|-5-5-5-5-5-5-5-5-5-5-5-5-5-5-5-5-|
|-0-0-0-0-0-0-0-0-3-3-3-3-3-3-3-3-|-2-2-2-2-2-2-2-2-3-3-3-3-2-2-2-2-|


|---------------------------------|-------------------------------|
|---------------------------------|-------------------------------|
|-5-5-5-5-5-5-5-5-4-4-4-4-4-4-4-4-|-2-2-2-2-2-2-2-2-----------7-7-|
|-5-5-5-5-5-5-5-5-5-5-5-5-5-5-5-5-|-2-2-2-2-2-2-2-2-5-5-5-5-5-7-7-|
|-3-3-3-3-3-3-3-3-2-2-2-2-2-2-2-2-|-0-0-0-0-0-0-0-0-5-5-5-5-5-5-5-|
|-3-3-3-3-3-3-3-3-3-3-3-3-3-3-3-3-|-x-x-x-x-x-x-x-x-3-3-3-3-3-5-5-|


|---------------------------------|---------------------------------|
|---------------------------------|---------------------------------|
|-----------------7-7-7-7-7-7-7-7-|-4-4-4-4-4-4-4-4-----------------|
|-5-5-5-5-5-5-5-5-7-7-7-7-7-7-7-7-|-5-5-5-5-5-5-5-5-7-7-7-7-7-7-7-7-|
|-5-5-5-5-5-5-5-5-5-5-5-5-5-5-5-5-|-2-2-2-2-2-2-2-2-7-7-7-7-7-7-7-7-|
|-3-3-3-3-3-3-3-3-5-5-5-5-5-5-5-5-|-----------------5-5-5-5-5-5-5-5-|


Chorus
||-------------------------------------------------|
||---8-----------7-----------8-----------10--------|
||-------------------------------------------------|
||---5-----------4-----------5------------7--------|
||-------------------------------------------------|
||-------------------------------------------------|
|
||-------------------------------------------------|
||-------------------------------------------------|
||-------------------------------------------------|
||---5--5-5-5-5-----5-5-5-5-----5-5-5-5------5-5-5-|
||---7--7-7-7-7-----7-7-7-7-----7-7-7-7------7-7-7-|
||-------------------------------------------------|


|------------------------------------------------------|
|--8-------8-------10-----12---------10---------7------|
|------------------------------------------------------|
|--5-------5--------7------9----------7---------4------|
|------------------------------------------------------|
|------------------------------------------------------|
|
|------------------------------------------------------|
|------------------------------------------------------|
|------------------------------------------------------|
|--7--7-7--7--7-7---7--7--10--10-10--10--10-10-10--10--|
|--5--5-5--5--5-5---5--5--10--10-10--10--10-10-10--10--|
|--------------------------8---8--8---8---8--8--8---8--|

play 4x

 Interlude
|--------------|--------------|--------------|---------------|
|--------------|--------------|--------------|---------------|
|-----7--------|-----7--------|-----7--------|-----7---------|
|-----5--------|-----5--------|-----5--------|-----4---------|
|-----7--------|-----5--------|-----3--------|-----5---------|
|--------------|--------------|--------------|---------------|
|
|--------------|--------------|--------------|---------------|
|--------------|--------------|--------------|---------------|
|-----7--------|-----7--------|-----7--------|-----7---------|
|---5----------|---5----------|---5----------|-4-------------|
|-7------------|-5------------|-3------------|---5-----------|
|--------------|--------------|--------------|---------------|


|-15------------------|---------------------|
|----15---------------|---------------------|
|---------------------|---14----------------|
|---------------------|---------------------|
|---------------------|---------------------|
|---------------------|---------------------|
|
|---------------------|---------------------|
|---------------------|---------------------|
|-------0-------------|-0-------------------|
|-----5---------------|----4----------------|
|--7------------------|------5--------------|
|---------------------|---------------------|


|----15------------|-------------------------|
|-15----15---------|-------------------------|
|------------------|-14----------------------|
|------------------|-------------------------|
|------------------|-------------------------|
|------------------|-------------------------|
|
|------------------|-------------------------|
|------------------|-------------------------|
|--------0---------|--------0----------------|
|-----2------------|----------4--------------|
|--3---------------|--3/5-------5------------|
|------------------|-------------------------|
play 2x




  Gtr II
|---------------------------------|---------------------------------|
|---------------------------------|---------------------------------|
|---------------------------------|---------------------------------|
|-5-5-5-5-5-5-5-5-5-5-5-5-5-5-4-5-|-4-4-4-4-4-4-4-4-4-4-4-4-4-4-4-4-|
|---------------------------------|---------------------------------|
|---------------------------------|---------------------------------|


|---------------------------------|---------------------------------|
|---------------------------------|---------------------------------|
|---------------------------------|---------------------------------|
|-2-2-2-2-2-2-2-2-2-2-2-2-2-2-2-4-|-5-5-5-5-5-5-7-7-4-4-4-4-0-0-0-0-|
|---------------------------------|---------------------------------|
|---------------------------------|---------------------------------|


 Gtr II
|---------------------------------|---------------------------------|
|---------------------------------|---------------------------------|
|---------------------------------|---------------------------------|
|-5-5-5-5-5-5-5-5-5-5-5-5-5-5-4-5-|-4-4-4-4-4-4-4-4-4-4-4-4-4-4-4-4-|
|---------------------------------|---------------------------------|
|---------------------------------|---------------------------------|
|
|Gtr I
|---------------------------------|---------------------------------|
|---------------------------------|---------------------------------|
|---------------------------------|---------------------------------|
|-2-2-2-2-2-2-2-2-2-2-2-2-2-2-2-2-|-2-2-2-2-2-2-2-2-0-0-0-0-0-0-0-0-|
|---------------------------------|---------------------------------|
|---------------------------------|---------------------------------|


|---------------------------------|---------------------------------|
|---------------------------------|---------------------------------|
|---------------------------------|---------------------------------|
|-2-2-2-2-2-2-2-2-2-2-2-2-2-2-2-4-|-5-5-5-5-5-5-7-7-4-4-4-4-4-4-4-4-|
|---------------------------------|---------------------------------|
|---------------------------------|---------------------------------|
|
|---------------------------------|---------------------------------|
|---------------------------------|---------------------------------|
|---------------------------------|---------------------------------|
|---------------------------------|-------------4-4-0-0-0-0-0-0-0-0-|
|-3-3-3-3-3-3-3-3-3-3-3-3-3-3-3-5-|-7-7-7-7-7-7---------------------|
|---------------------------------|---------------------------------|


|-----------------------|-----------------------|
|-8-8-8-8-8-8-8-8-8-7-8-|-7-7-7-7-7-7-7-7-7-7-7-|
|-x-x-x-x-x-x-x-x-x-x-x-|-x-x-x-x-x-x-x-x-x-x-x-|
|-5-5-5-5-5-5-5-5-5-4-5-|-4-4-4-4-x-x-x-x-x-x-x-|
|-----------------------|---------5-5-5-5-5-5-5-|
|-----------------------|-----------------------|
|
|-----------------------|-----------------------|
|-----------------------|-----------------------|
|-9-9-9-9-9-9-9-9-9-9-9-|-9-9-9-9-7-7-7-7-7-7-7-|
|-x-x-x-x-x-x-x-x-x-x-x-|-x-x-x-x-x-x-x-x-x-x-x-|
|-7-7-7-7-7-7-7-7-7-7-7-|-7-7-7-7-5-5-5-5-5-5-5-|
|-----------------------|-----------------------|


|---------------------|----------------------|
|---------------------|----------------------|
|-5-5-5-5-5-5-5-5-5-5-|-9-9-9-9-9-7-7-7-7-7--|
|-x-x-x-x-x-x-x-x-x-x-|-x-x-x-x-x-x-x-x-x-x--|
|-3-3-3-3-3-3-3-3-3-3-|-7-7-7-7-7-5-5-5-5-5--|
|---------------------|----------------------|
|
|---------------------|----------------------|
|---------------------|----------------------|
|-5-5-5-5-5-5-5-5-5-5-|-9-9-9-9-9-7-7-7-7-7--|
|-x-x-x-x-x-x-x-x-x-x-|-x-x-x-x-x-x-x-x-x-x--|
|-3-3-3-3-3-3-3-3-3-3-|-7-7-7-7-7-5-5-5-5-5--|
|---------------------|----------------------|
play 2x


   Outro

|-3-3-3-3-3-3-3-3-3-3-3-3-3-3-3-3-|-3-3-3-3-3-3-3-3-2-2-2-2-2-2-2-2-|
|-3-3-3-3-3-3-3-3-3-3-3-3-3-3-3-3-|-3-3-3-3-3-3-3-3-3-3-3-3-3-3-3-3-|
|-0-0-0-0-0-0-0-0-0-0-0-0-0-0-0-0-|-0-0-0-0-0-0-0-0-0-0-0-0-0-0-0-0-|
|---------------------------------|---------------------------------|
|---------------------------------|---------------------------------|
|---------------------------------|---------------------------------|
|
|---------------------------------|---------------------------------|
|---------------------------------|---------------------------------|
|-5-5-5-5-5-5-5-5-5-5-5-5-5-5-5-5-|-7-7-7-7-7-7-7-7-7-7-7-7-7-7-7-7-|
|-5-5-5-5-5-5-5-5-5-5-5-5-5-5-5-5-|-7-7-7-7-7-7-7-7-7-7-7-7-7-7-7-7-|
|-3-3-3-3-3-3-3-3-3-3-3-3-3-3-3-3-|-5-5-5-5-5-5-5-5-5-5-5-5-5-5-5-5-|
|---------------------------------|---------------------------------|
play 4x except on last time, replace the last measure with the one below:


|-x-x-x-x-14------------------------|
|-x-x-x-x-----15--------------------|
|-x-x-x-x------------14-------------|
|-----------------------------------|
|-----------------------------------|
|-----------------------------------|
|
|-----------------------------------|
|-----------------------------------|
|-9---------------7-----------------|
|-9---------------7-----------------|
|-7---------------5-----------------|
|-----------------------------------|


The first guitar is panned to the left, second is panned to the right.
I hope this makes sense...
If you have any questions, e-mail me: rainerclouds@yahoo.com

--Jon

Comments about this tab

No comments/corrections found. Add your own

Complimentary Christian Ringtones
Dadamobile and CGR have teamed up to bring your favorite Christian artists right to your phone. Sign up today and get 10 complementary ringtones!
Tab Country
Did you know CGR has a sister site w/ country guitar tabs? Well we do! Its called Tab Country. It has a great archive with a lot of country tabs.
Rockin Tabs
Are you looking for a site that has rock guitar tabs? Then Rockintabs.com is the place for you. It is a budding site with many rock guitar tabs. Submit your tab today.
Tab Gallery
Tab Gallery has a compilation of christian, rock, and country tabs all in one place. Come visit us.