Guitar Tabs
song title    band name

Join Us Today!

Don't strum alone...
be a part of the largest online Christian music community. Browse thousands of guitar tabs and chat w/ musicians like yourself.


It's Free!

Circadian Rhythm - Ever My Love

This tab has been rated a 5.00 out of 5 for accuracy. (1 vote)Sorry, but you must be logged in to rate this tab.
Click here to log-in, or you can click here to register.
(Registration is free)

All songs owned by corresponding publishing company. If you make copies of any song on this website, be sure to report your usage to CCLI.
Submitted by: d_fish_ent_man

Ever My Love
Circadiam Rhythm
Over Under Everything
(c) 2001 40Records, Inc.

TABBED BY: PHIL "Philbert" WILDHIRT
questions & comments 

 ::There are already two versions of this on here, however, they were too
      simple and incorrect, and didn't do justice to this song.  Here is the
      correct and, sorry, long version.

 ::This tab should be exceptionally accurate.

 ::note to bassists:
    I also wrote in the chords and bass notes.  The bass guitar 
      follows my bass notes, with the exception on a few
      fancy add-ins.  The bass guitar comes in when the
      distortion is turned on and it slide up an octave and
      then back down each time the G Riff is played.



Introduction  ==  THIS IS: strum low strings then hit the high
                     'e' and 'b'.


 chord::    G            /  up  \
                         \stroke/                 repeated 4x
 e -------|| -----------3------------------------|  from double
 b -------||.-----------0------------------------|  barline
 g -------|| ----------(0)---0-------------------|
 d -----0-||.-0--0-0---------0-0-0-0-0-(0)-----0-|
 a -2-3---|| -x--x-x-----------x-x-x-x-(x)-2-3---|
 E -------|| -3--3-3-----------3-3-3-3-(3)-------|



Verse  ==  PLAY THE INTRO ONCE, THEN... (strum)


 chord: G/F  G/E     G/D     G/C

 e |-3--3-3--3--3-3--3--3-3--3--3-3--|
 b |-0--0-0--0--0-0--0--0-0--0--0-0--|
 g |-0--0-0--0--0-0--0--0-0--0--0-0--|
 d |-3--3-3--2--2-2--0--0-0--x--x-x--|
 a |-------------------------3--3-3--|
 E |---------------------------------|


Then play twice through the Introduction


REPEAT ENTIRE VERSE SECTION




Chorus 

      Strum once       strum       Dsus7
 Chords:                             or
     F2  C  Am7 F\Bb  F2           Gsus/D  Gsus/D

 e |-3---3---3---3--|-3-----------|-3-------3----
 b |-1---1---1---1--|-1-----------|-1-------1----
 g |-2---0---0---3--|-2-----------|-2-------0----
 d |-3---2---2---3--|-3-----------|-0-------0----
 a |-----3---0------|-------------|--------------
 E |----------------|-------------|-------------- . . .


             TURN ON THAT DISTORTION!!


Now the song pretty much repeats itself twice.


"G RIFF"     (this is played... this is not just for reference)

  emphacize these                                      x2 
    three notes
         -------|| ---------3-------------------|
         -------||.---------3-------------------|
         -------|| -0--0-0--0----0-0-0-0--------|
         -----0-||.-0--0-0-------0-0-0-0------0-|
         -2-3---|| -x--x-x-------x-x-x-x--2-3---|
   . . . -------|| -3--3-3-------3-3-3-3--------|


Verse  ==  PLAY THE "G RIFF" ONCE, THEN...


 chord: G/F  G/E    G/D     G/C

 e |-3---3---3---3---3---3--------|
 b |-3---3---3---3---3---3--------|
 g |-0---0---0---0---0---0--------|
 d |-3---3---2---2---0---0------0-|
 a |------------------------2-3---|
 E |------------------------------|


Then the "G RIFF" turns into something like this:      x2

         -------||---------3--------3------------|
         -------||---------3--------3------------|
         -------||-0---0---0---0-0--0--0-0-------|
         -----0-||-0---0-------0-0-----0-0-----0-|
         -2-3---||-x---x-------x-x-----x-x-2-3---|
   . . . -------||-3---3-------3-3-----3-3-------|


REPEAT WHOLE VERSE SECTION



Chorus 

      Strum once                     Dsus7
 Chords:                               or
     F2  C  Am7 F\Bb  F2             Gsus/D  Gsus/D

 e |-3---3---3---3--|-3---3---3---3-|-3-------3----
 b |-1---1---1---1--|-1---1---1---1-|-1-------1----
 g |-2---0---0---3--|-2---2---2---2-|-2-------0----
 d |-3---2---2---3--|-3---3---2---3-|-0-------0----
 a |-----3---0------|---------------|--------------
 E |----------------|---------------|-------------- . . .



New "G RIFF" x1



THEN   (it's the same only we change to a C(no3)

          G               C(no3)/G       notice: the bass stays
                                                   on the G
        |---------3--------3----------|
        |---------3--------1----------|
        |-0---0---0---0-0--0----------|
        |-0---0-------0-0--x----------|
        |-x---x-------x-x--3----------|
  . . . |-3---3-------3-3-------------|



BRIDGE

   Dsus  C2(no3)   G/B  C2(no)3      x4  the last repeat you
                                           will hold the G/B
e  -3-     -3-     -3-                     and C2 for the full
b  -3-     -3-     -3-                     four counts, and
g  -2-     -0-     -0-                     on the C2 you play
d  -0-     -x-     -0-                     the pick up to the
a  ---     -3-     -2-                     old "G RIFF"
E  ---     ---     ---



THEN the OLD "G RIFF" plus a CHORUS  - TWICE, x2 -

         -------|| ---------3-------------------|
         -------||.---------3-------------------|
         -------|| -0--0-0--0----0-0-0-0--------|
         -----0-||.-0--0-0-------0-0-0-0------0-|
         -2-3---|| -x--x-x-------x-x-x-x--2-3---|
   . . . -------|| -3--3-3-------3-3-3-3--------|



      Strum once                     Dsus7
 Chords:                               or
     F2  C  Am7 F\Bb  F2             Gsus/D  Gsus/D

 e |-3---3---3---3--|-3---3---3---3-|-3-------3----
 b |-1---1---1---1--|-1---1---1---1-|-1-------1----
 g |-2---0---0---3--|-2---2---2---2-|-2-------0----
 d |-3---2---2---3--|-3---3---2---3-|-0-------0----
 a |-----3---0------|---------------|--------------
 E |----------------|---------------|-------------- . . .



AND the OUTRO   x4

         -------|| ---------3-------------------|
         -------||.---------3-------------------|
         -------|| -0--0-0--0----0-0-0-0--------|
         -----0-||.-0--0-0-------0-0-0-0------0-|
         -2-3---|| -x--x-x-------x-x-x-x--2-3---|
   . . . -------|| -3--3-3-------3-3-3-3--------|


END on a BIG  "G(no3)"  >> 3x0033 <<



           -=-=- what a song, eh? -=-=-

Comments about this tab

No comments/corrections found. Add your own

Complimentary Christian Ringtones
Dadamobile and CGR have teamed up to bring your favorite Christian artists right to your phone. Sign up today and get 10 complementary ringtones!
Tab Country
Did you know CGR has a sister site w/ country guitar tabs? Well we do! Its called Tab Country. It has a great archive with a lot of country tabs.
Rockin Tabs
Are you looking for a site that has rock guitar tabs? Then Rockintabs.com is the place for you. It is a budding site with many rock guitar tabs. Submit your tab today.
Tab Gallery
Tab Gallery has a compilation of christian, rock, and country tabs all in one place. Come visit us.