Guitar Tabs
song title    band name

Join Us Today!

Don't strum alone...
be a part of the largest online Christian music community. Browse thousands of guitar tabs and chat w/ musicians like yourself.


It's Free!

This tab has not yet been rated for accuracy.Sorry, but you must be logged in to rate this tab.
Click here to log-in, or you can click here to register.
(Registration is free)

All songs owned by corresponding publishing company. If you make copies of any song on this website, be sure to report your usage to CCLI.
Along the Road
Ashton, Becker, Dente
Along the Road album
Copyright 1994, Sparrow Corp.
Tabbed by Andrew and Kelly Jay (ajay@is2.dal.ca)

We modified this from Jonathan Roung's version. We basically just put
our tab over his and left all the chords the way they were.

To play this song with the CD, capo on the 7th fret.

CHORDS:
  D  Em7  G   D2  A7  Bm  F7
--2---0---3---0---0---2---2--
--3---3---0---3---2---3---2--
--2---0---0---2---0---4---3--
--0---2---0---0---2---4---2--
--0---2---2---0---0---2---4--
--2---0---3---2---0---2---2--

Riff #1:
   D                 Em7             G                   D
|--------0------2----------0---------------------------------------
|--3---3-----3-------3---3-------0---0---0--3------------------3---
|----2-----------------1-------1-----0-0-------0-0h2-2h4-2---2-----
|--0-------0-------0-2-------2---------------0-------------0-----0-
|------------------------------------------------------------------
|------------------------------------------------------------------

                       Em7         G                       D
----0---0h2---------0--------0-------------------------------------|
-3-3--3-------3--------3---3-------0---0---0-3---------------------|
--2----2-----2----2------1-------1-----0-0-------0-0h2-2h4-2-------|
------------0---0----0-2-------2---------------0-------------------|
-------------------------------------------------------------------|
-------------------------------------------------------------------|

   D         D2
|---------2---0-------------------------------------------
|------3--------------------------------------------------
|----2----------------------------------------------------
|--0--------0---0-----------------------------------------
|---------------------------------------------------------
|---------------------------------------------------------

Riff #2: (see above for transion b/w riff#1 and riff#2)
  D  D2 Bm              G                F7           G         A7
|--------------0-------------------------0----------0----------------
|------3-----3------3---0---0--3---------------3------0--0-0-3---2---
|----------4------4--------0--------4-3------3----3---0-0----0-0-2-2-
|--------4------4-------0-0----0-0---------4-----4-------------------       
|------2-------2-----------------------------------------------------
|--------------------------------------------------------------------

 Bm              E7             A7
-------0---------------0-----------------------------------------|
-3---3-------3---0---------------2-----2-3----3-5-----7-8--\-2---|
----4------4---------1-------1-----------------------------------|
---4-----4---------0-------0-----2----2--4---4--5---5-7-8-8\-2-2-|
-2-----2----------------------------0------0------0--------------|
-----------------0-------0---------------------------------------|

Riff 1
Joy at the start,
Fear in the journey,
Joy in the coming home.
A part of the heart
Gets lost in the learning
Somewhere along the road.

Riff 2
Along the road, your path may wander.
A pilgrim's faith may fail.
Absence makes the heart grow stronger.
Darkness obscures the trail.

Riff 1
Cursing the quest,
Courting disaster.
Measureless nights forebode.
Moments of rest,
Glimpses of laughter
Are treasured along the road.

Riff 2
Along the road your steps may stumble,
Your thoughts may start to stray.
But through it all, a heart held humble
Levels and lights your way.

Riff 1, Riff 2
Ahhhh....

Riff 1
Joy at the start...
Somewhere along the road.
Somewhere along the road.
Somewhere along the road. (fade out)


God bless!

Keep doin' the Walk!

Comments about this tab

No comments/corrections found. Add your own

Complimentary Christian Ringtones
Dadamobile and CGR have teamed up to bring your favorite Christian artists right to your phone. Sign up today and get 10 complementary ringtones!
Tab Country
Did you know CGR has a sister site w/ country guitar tabs? Well we do! Its called Tab Country. It has a great archive with a lot of country tabs.
Rockin Tabs
Are you looking for a site that has rock guitar tabs? Then Rockintabs.com is the place for you. It is a budding site with many rock guitar tabs. Submit your tab today.
Tab Gallery
Tab Gallery has a compilation of christian, rock, and country tabs all in one place. Come visit us.