Guitar Tabs
song title    band name

Join Us Today!

Don't strum alone...
be a part of the largest online Christian music community. Browse thousands of guitar tabs and chat w/ musicians like yourself.


It's Free!

Audio Adrenaline - Dirty

This tab has been rated a 4.63 out of 5 for accuracy. (8 votes)Sorry, but you must be logged in to rate this tab.
Click here to log-in, or you can click here to register.
(Registration is free)

All songs owned by corresponding publishing company. If you make copies of any song on this website, be sure to report your usage to CCLI.
Submitted by: Jango Fett

Dirty
Audio Adrenaline

alright, this is Dirty by Audio Adrenaline from their new CD Worldwide.
The riffs are awesome, so enjoy.

intro/chorus first guitar

-------------------------------------------------------------
-------------------------------------------------------------
-------------------------------------------------------------
---------------------8------------3-----------3--------------
--------3----6-8/10--------1-3/5------1-3/5------------------
1-1-3/5------------------------------------------------------

repeat that, but the second time at the beginning only hit the 1 once

2nd guitar:

-------------------------------------------------------------
---------------1-------------------------1-3-----------------
--2^0--2^0--2---------------2^0--2^0--2----------------------
------------------3---03------------------------3----03------
-------------------------------------------------------------
-------------------------------------------------------------

repeat until verse

-------------------------------------------------------------
---------------4--3--3--4--3--4--3---------------------------
---------------3--3--3--3--3--3--3---------------------------
--3--3---------5--3--3--5--3--5--3---------------------------
--3--3-------------------------------------------------------
--1--1-------------------------------------------------------

then it goes into

-------------------------------------------------------------
---------3-6--------6-6-------3-6---------6-6----------------
------3----------7--------3------------7---------------------
---5-----------8--------5-----------8------------------------
-------------------------------------------------------------
-------------------------------------------------------------


then repeat the chorus, etc. enjoy

Comments about this tab

Awanabecop - 2004-05-21

I think the riff slide is e-1-1---3s5--------------6--8s10---6-8s10-----
a---------3---6---8s10---------8--------8-----
d---------3---------8----------8--------8----- g-------------------8-------------------------
thats all! just trying to help! Josiah







JasonL917 - 2004-07-01

An easier way ,I think, to play opening riff
E------------------------------------------------------------------
B------------------------------------------------------------------
G--------------------------3---------------------------------------
D------------------1--3/5-----------------3--------------3---------
A-------------3-------------------1--3/5---------1--3/5------------
E---1-1--3/5-------------------------------------------------------

God Bless
Jason


kj52rox - 2004-09-07

2nd guitar is actually this i think

-------------------------------------------10-12----------------------------------
-12-11-12-11-12-10----------12-11-12-11-12----------------------------------------
-------------------12----------------------------12-------------------------------
----------------------------------------------------------------------------------
----------------------------------------------------------------------------------
----------------------------------------------------------------------------------


jc-16 - 2004-12-13

cool i have been trying to figure this thing out for a long time


BlackAttack1287 - 2005-04-06

OK, try this on for size, my intro:

G-----------0-3---------------
D----------1-------0-3---0-3--
A-----0-3--------1-----1------
E-1-1-------------------------

Whatcha think?


Awanabecop - 2005-07-20

OK forget my correction above it's way off! anyways you have the tab ok, it's not really all there you're missing alot of stuff. I'll tab out the whole song and then you will all see.

Josiah


jdbinnendyk - 2005-08-01

I honestly cant get this to work out here!!!!
I really need the correct tab for this song.
My youth wants to play it and I've tried tabbing it but I cant quite get it and Ive tried playing it these ways and It doesnt sound right at all.
Please Help!!!!!!!
Jabin


John_prs_guitar - 2005-12-30

Hey man! You've got the intro but the second guitar part is a little off.

---------------------------------------------------------------------
---------------------------------------------------------------------
-----------------------------------5-7---------------------------------
---7-5--7-5--7-5-------7-5--7-5--7-------------------------------------
-------------------8--------------------8------------------------------
---------------------------------------------------------------------


clonewars200 - 2006-07-31

actually i think the 2nd guitar is
E|--------------------------|--------------8-10---|
B|--10-9-10-9-10-8----------|--10-9-10-9-10-------|
G|----------------10--7/9/10|------------------10-|

or something close.


Godswarrior - 2007-01-23

wow guys make up your mind about what the 2nd Guitar part is.

lol


Add a comment/correction

Complimentary Christian Ringtones
Dadamobile and CGR have teamed up to bring your favorite Christian artists right to your phone. Sign up today and get 10 complementary ringtones!
Tab Country
Did you know CGR has a sister site w/ country guitar tabs? Well we do! Its called Tab Country. It has a great archive with a lot of country tabs.
Rockin Tabs
Are you looking for a site that has rock guitar tabs? Then Rockintabs.com is the place for you. It is a budding site with many rock guitar tabs. Submit your tab today.
Tab Gallery
Tab Gallery has a compilation of christian, rock, and country tabs all in one place. Come visit us.