Guitar Tabs
song title    band name

Join Us Today!

Don't strum alone...
be a part of the largest online Christian music community. Browse thousands of guitar tabs and chat w/ musicians like yourself.


It's Free!

Delirious - Follow

This tab has not yet been rated for accuracy.Sorry, but you must be logged in to rate this tab.
Click here to log-in, or you can click here to register.
(Registration is free)

All songs owned by corresponding publishing company. If you make copies of any song on this website, be sure to report your usage to CCLI.
Submitted by: mansonstinks

Follow
Delirious

The other tab on this site is definitely worth a look, as far as chords go
but this one has more of the lead parts.

Gt. 1
e------------------------------------------
B------------------------------------------
G---6-(6)--7-8---------------8-------------
D-------------------------6--6-------------
A------------------------------------------
E------------------------------------------

Gt.2
e------------------------------------------
B------------------------------------------
G------------------------------------------
D--99999999--99999999--66666666--66666666--
A--77777777--77777777--44444444--44444444--
E------------------------------------------


Gt. 1
e--------------------00--------0---------
B---------0--------0-00--------0---------
G---------2------222---------------------
D--2222222---2222222---------------------
A--0000000---000000-----7777777--77777777
E-----------------------0000000--00000000

Gt. 2
e----------------------------------------
B----------------------------------------
G----------------------------------------
D---4--6------------------4--6-----------
A----------------------------------------
E----------------------------------------

Gt. 1
e----------------------------------------
B----------------------------------------
G----------------------------------------
D----------------------------------------
A--77777777--77777777--77777777--77777777
E--00000000--00000000--00000000--00000000

Gt. 2
e--------------------------------------
B---7-9----------------7-9-------------
G--------------------------------------
D--------------------------------------
A--------------------------------------
E--------------------------------------

Gt. 1
e----0-----0------0------0--
B----0-----0------0------0--
G----2-----4----------------
D---------------------------
A--0-----2-----4------------
E----------------------2----

Gt. 2
e---------------------------
B---------------------------
G--2222--4444--6666---------
D--2222--XXXX--XXXX--4444---
A--0000--2222--4444--XXXX---
E--------------------2222---

Both Gt.’s
e-------------------
B-------------------
G-------------------
D-----------99999999
A--77777777-77777777
E--00000000---------

Both Gt.’s
e-----0-------0------0--------0----
B-------0-------1------0---------2-
G----------------------------------
D----------------------------------
A--4-------3-------2-------1-------
E----------------------------------


Both Gt.’s  (Play riff after the A and B 4 times)
e--0-----0--------------------------------------
B--0-----0--------------------------------------
G--2-----4----9--9--13---11-9-9---99---13--11-99
D--2-----4----9--9--13---11-9-9---99---13--11-99
A--0-----2----7--7--11---9--7-7---77---11--9--77
E-----------------------------------------------

Here is the chorus:
Gt. 1
e------------------------------------0--------0
B------------------------------------0--------0
G--9--9---9--9--9--9--9--2---2--2----2--------2
D--9--9---9--9--9--9--9--2---2--2--------------
A--7--7---7--7--7--7--7--0---0--0--------------
E---------------------------------2----2--2----

Gt. 2 Tremolo is set to the 16th note
e---------------------------------------
B---------------------------------------
G--9---------9-------------2-----------2
D--9---------9-------------2-----------2
A--7---------7-------------0-----------X
E--------------------------------------2

You just repeat those parts as nessacarry

The 2nd verse is the same as the first except:

On the second part of the 2nd verse when he sings “Im not coming down”
the guitar goes like this:
e----------------------------------------
B----------------------------------------
G--9---------------9--9--9--9--9--9--9--9
D----------------------------------------
A----------------------------------------
E----------------------------------------

On all of the 9’s in a row you flip the toggle switch to the rhythm that
he plays

The chorus is the same

Here is the guitar solo:
e-------0---0--------0--0--------0--0-------0--0
B-------0---0--------0--0--------0--0-------0--0
G-------4---4--------4--4-------------------7--7
D-----------------------------------------------
A--4--4---------2--2-------0--0--------5--5-----
E-----------------------------------------------

e--------0--0--------0--0--0-----
B--------0--0--------0--0--0-----
G--------4--4--------4--4--2-----
D--------------------------2-----
A--4--4---------2--2-------X-----
E--------------------------2----

The quiet “I will follow” part
e--------------------------------------------
B--------------------------------------------
G--13--13---11--11---14--14--13--13--13--13--
D--------------------------------------------
A--11--11---9---9----12--14--11--11--11--11--
E--------------------------------------------

This is the mutes with the wah:
e--------------------------
B--------------------------
G--XXXXXXXXXXXXXXXXXXXXXXXX
D--XXXXXXXXXXXXXXXXXXXXXXXX
A--------------------------
E--------------------------

The last chord at the end while the other guitar keeps playing the muted
riff is this:
e---
B--5
G--4
D--2
A---
E---

And then it just ends.  Some things to take into consideration are one that
I really suck at showing timing so listen to the song to get the timing
right.  Thats really it.  If you have any questions or comments (which
are most definitely welcome) email me at mansonstinks@aol.com
Play In Christ

Comments about this tab

No comments/corrections found. Add your own

Complimentary Christian Ringtones
Dadamobile and CGR have teamed up to bring your favorite Christian artists right to your phone. Sign up today and get 10 complementary ringtones!
Tab Country
Did you know CGR has a sister site w/ country guitar tabs? Well we do! Its called Tab Country. It has a great archive with a lot of country tabs.
Rockin Tabs
Are you looking for a site that has rock guitar tabs? Then Rockintabs.com is the place for you. It is a budding site with many rock guitar tabs. Submit your tab today.
Tab Gallery
Tab Gallery has a compilation of christian, rock, and country tabs all in one place. Come visit us.