Guitar Tabs
song title    band name

Join Us Today!

Don't strum alone...
be a part of the largest online Christian music community. Browse thousands of guitar tabs and chat w/ musicians like yourself.


It's Free!

This tab has been rated a 5.00 out of 5 for accuracy. (1 vote)Sorry, but you must be logged in to rate this tab.
Click here to log-in, or you can click here to register.
(Registration is free)

All songs owned by corresponding publishing company. If you make copies of any song on this website, be sure to report your usage to CCLI.
Submitted by: radicallysaved3

Title:  In The Silence
Artist: Spoken
Album:  Echoes of the Spirit Still Dwell

I was looking at the other version of tabs for this song and they didn't
make sense, so I figured the song out, and made these tabs for y'all! enjoy!

drop D tuning

Intro:

G-3-3-4-4
D-1-1-1-1  (4x)
A-xxxxxxx
D-xxxxxxx

Verse:

G-xxxxxxx-3344444
D-xxxxxxx-1111111
A-1-11-11-1111111
D-1-11-11-1111111

Pre-Chorus:

G--------------------------------
D---4-4-3-----------4-4-3--------
A---------4-4/6-6---------4-4/6-6
D-1---------------1--------------

G--------------------------------
D---4-4-3-----------4-4-3--------
A---------4-4/6-6---------4-4/6-6
D-6---------------6--------------

G--------------------------------
D---4-4-3-----------4-4-3--------
A-2-------4-4/6-6-2-------4-4/6-6
D--------------------------------


G--------------------------------
D---4-4-3-----------4-4-3--------
A---------4-4/6-6---------4-4/6-6
D-1---------------1--------------

Chorus:

G------6666-4444-----
D-1111-6666-4444-1111
A-1111-4444-2222-1111
D-1111-----------1111

And that's it! Listen to the song to get the exact strumming! I play this
song all the time and it sounds beautiful to me, and it should to you as
well! But if not, email me at pencil_necked_geek@hotmail.com with your
corrections. And watch out for Spoken's new cd coming out in
September!!!!:D:D:D

Comments about this tab

No comments/corrections found. Add your own

Complimentary Christian Ringtones
Dadamobile and CGR have teamed up to bring your favorite Christian artists right to your phone. Sign up today and get 10 complementary ringtones!
Tab Country
Did you know CGR has a sister site w/ country guitar tabs? Well we do! Its called Tab Country. It has a great archive with a lot of country tabs.
Rockin Tabs
Are you looking for a site that has rock guitar tabs? Then Rockintabs.com is the place for you. It is a budding site with many rock guitar tabs. Submit your tab today.
Tab Gallery
Tab Gallery has a compilation of christian, rock, and country tabs all in one place. Come visit us.