Guitar Tabs
song title    band name

Join Us Today!

Don't strum alone...
be a part of the largest online Christian music community. Browse thousands of guitar tabs and chat w/ musicians like yourself.


It's Free!

Chapman, Steven Curtis - Lord Of The Dance

This tab has not yet been rated for accuracy.Sorry, but you must be logged in to rate this tab.
Click here to log-in, or you can click here to register.
(Registration is free)

All songs owned by corresponding publishing company. If you make copies of any song on this website, be sure to report your usage to CCLI.
Lord of the Dance
Steven Curtis Chapman

Hey everybody. This is my first shot at doing a tab. . . 
Let me know what you think ( comments/questions ) at 
antlease@yahoo.com. I also know A LOT of other SCC tabs so if 
you need one, let me know.

Song:Lord of the Dance - Abbey Road Version
CD: Greatest Hits

Tuning: Open C
               E  A  D  G  B  E
               C  F  C  E  G  (C) (the high e to c is optional)

Intro:
C-0------------------------------------------------------------
G-0---------------------------------------------------------3--
E-0--------------------------------------------0--------------6
C-0----------------------3\0----------0--5\3\0---5\3\0---------
F-0-------------3/5----0-----0----3/5--------------------0-----
C-0---0-0-3\0-0------0---------3\0-----------------------------

2nd Ending:
C-----------------
G-----------------
E-----------------
C---5\3\0---------
F---------3\0-----
C--------------3\0

Final Ending:
C------------------------0
G------------------------0
E------------------------0
C-------0---5\3\0--------0
F---0/3---0-------3\0----0
C---------------------3--0

That's it! This is as close as I could get; enjoy and keep
praising God with the gift of music! Steve

Comments about this tab

No comments/corrections found. Add your own

Complimentary Christian Ringtones
Dadamobile and CGR have teamed up to bring your favorite Christian artists right to your phone. Sign up today and get 10 complementary ringtones!
Tab Country
Did you know CGR has a sister site w/ country guitar tabs? Well we do! Its called Tab Country. It has a great archive with a lot of country tabs.
Rockin Tabs
Are you looking for a site that has rock guitar tabs? Then Rockintabs.com is the place for you. It is a budding site with many rock guitar tabs. Submit your tab today.
Tab Gallery
Tab Gallery has a compilation of christian, rock, and country tabs all in one place. Come visit us.