Guitar Tabs
song title    band name

Join Us Today!

Don't strum alone...
be a part of the largest online Christian music community. Browse thousands of guitar tabs and chat w/ musicians like yourself.


It's Free!

Chevelle - Red, The

This tab has been rated a 3.67 out of 5 for accuracy. (3 votes)Sorry, but you must be logged in to rate this tab.
Click here to log-in, or you can click here to register.
(Registration is free)

All songs owned by corresponding publishing company. If you make copies of any song on this website, be sure to report your usage to CCLI.
The Red
Chevelle

Tabbed by: Rob Trennepohl

This a pretty easy song as long as you do this tuning style:

E
G
B
C#-Lowered half a step
G#-Lowered half a step
C#-Lowered half a step from drop D

The tuning is key.  Without that tuning, you really can't play any of the
song because the guitar won't go low enough.  This is exactly what it
sounds like on the CD.

Intro (Main Riff) (x2):
E------------------------------------------------
G------------------------------------------------
B------------------------------------------------
C#--0-0-2-0-0--3-3-5-3-3--0-0-2-0-0--8-8-8-8-8---
G#--0-0-2-0-0--3-3-5-3-3--0-0-2-0-0--8-8-8-8-8---
C#--0-0-2-0-0--3-3-5-3-3--0-0-2-0-0--8-8-8-8-8---

Verse (entire verse is palm muted) (x4):
E------------------------------------------------
G------------------------------------------------
B------------------------------------------------
C#--0-0-2-0-0--3-3-5-3-3--0-0-2-0-0--8-8-8-8-8---
G#--0-0-2-0-0--3-3-5-3-3--0-0-2-0-0--8-8-8-8-8---
C#--0-0-2-0-0--3-3-5-3-3--0-0-2-0-0--8-8-8-8-8---

Chorus (not palm muted):
E-----------------------------------------------
G-----------------------------------------------
B-----------------------------------------------
C#--0--0-0-0-0-0-0-0-0-0--3--3-3-3-3-3-3-3-3-3--
G#--0--0-0-0-0-0-0-0-0-0--3--3-3-3-3-3-3-3-3-3--
C#--0--0-0-0-0-0-0-0-0-0--3--3-3-3-3-3-3-3-3-3--

E------------------------------------------------------------------
G------------------------------------------------------------------
B------------------------------------------------------------------
C#--10--10-10-10-10-10-10-10-10-10--10--10-10-10-10-10-10-10-10-10-
G#--10--10-10-10-10-10-10-10-10-10--10--10-10-10-10-10-10-10-10-10-
C#--10--10-10-10-10-10-10-10-10-10--10--10-10-10-10-10-10-10-10-10-

E-----------------------------------------------
G-----------------------------------------------
B-----------------------------------------------
C#--0--0-0-0-0-0-0-0-0-0--3--3-3-3-3-3-3-3-3-3--
G#--0--0-0-0-0-0-0-0-0-0--3--3-3-3-3-3-3-3-3-3--
C#--0--0-0-0-0-0-0-0-0-0--3--3-3-3-3-3-3-3-3-3--

E---------------------------------------------------
G---------------------------------------------------
B---------------------------------------------------
C#--10--10-10-10-10-10-10-10-10-10--5-7-7-7-7-7-7-7-
G#--10--10-10-10-10-10-10-10-10-10--5-7-7-7-7-7-7-7-
C#--10--10-10-10-10-10-10-10-10-10--5-7-7-7-7-7-7-7-

Main Riff (unpalm muted) (x2)

Verse (palm muted) (x8)

Chorus

After Chorus (Main Guitar)(x2):
He uses a weird effect.  I don't know the rythymns here, but here's the
tabs for each note.
E------------------
G------------------
B---1--------------
C#---------0-------
G#------3----------
C#-----------------

On that part, the other guitar just plays the main riff palm muted (x4).

Then Chorus (x2):
First time is normal.

Then play the main riff unpalm muted (x4).
Ending (when he holds out his "scream" or whatever you want to call it):
E----------------------------------------------------------------
G----------------------------------------------------------------
B----------------------------------------------------------------
C#--8-8-x-x-x-x-x--8-8-x-x-x-x-x--7-7-x-x-x-x-x--7-7-x-x-x-x-x-0-
G#--8-8-x-x-x-x-x--8-8-x-x-x-x-x--7-7-x-x-x-x-x--7-7-x-x-x-x-x-0-
C#--8-8-x-x-x-x-x--8-8-x-x-x-x-x--7-7-x-x-x-x-x--7-7-x-x-x-x-x-0-

Let the last note ring out.  That's the song!  I really like this song,
except it is kind of a hastle changing the tuning every time!  Enjoy!  ^_^

Comments about this tab

39lashes - 2004-12-23

the wierd effect is a leslie set really fast (rotary)
-charlie


Add a comment/correction

Complimentary Christian Ringtones
Dadamobile and CGR have teamed up to bring your favorite Christian artists right to your phone. Sign up today and get 10 complementary ringtones!
Tab Country
Did you know CGR has a sister site w/ country guitar tabs? Well we do! Its called Tab Country. It has a great archive with a lot of country tabs.
Rockin Tabs
Are you looking for a site that has rock guitar tabs? Then Rockintabs.com is the place for you. It is a budding site with many rock guitar tabs. Submit your tab today.
Tab Gallery
Tab Gallery has a compilation of christian, rock, and country tabs all in one place. Come visit us.