Guitar Tabs
song title    band name

Join Us Today!

Don't strum alone...
be a part of the largest online Christian music community. Browse thousands of guitar tabs and chat w/ musicians like yourself.


It's Free!

Chevelle - Red, The

This tab has been rated a 3.50 out of 5 for accuracy. (2 votes)Sorry, but you must be logged in to rate this tab.
Click here to log-in, or you can click here to register.
(Registration is free)

All songs owned by corresponding publishing company. If you make copies of any song on this website, be sure to report your usage to CCLI.
The Red
Chevelle

The other tabs weren't bad, but I don't think that they were totally
correct, so this is the way that I think it is played. (Drop D tuning)

Intro: (Play twice)
E|---------------------------------------------------------
B|---------------------------------------------------------
G|---------------------------------------------------------
D|-7--7-9-7-0--3--3-3-3-3-0--7--7-9-7-0--8--8-8-8-8--------
A|-7--7-7-7-0--3--3-3-3-3-0--7--7-7-7-0--8--8-8-8-8--------
D|-7--7-7-7-0--3--3-3-3-3-0--7--7-7-7-0--8--8-8-8-8--------

Verse 1: (Play 4x)
E|---------------------------------------------------------
B|---------------------------------------------------------
G|---------------------------------------------------------
D|-7--7-9-7-0--3--3-3-3-3-0--7--7-9-7-0--8--8-8-8-8-0-8----
A|-7--7-7-7-0--3--3-3-3-3-0--7--7-7-7-0--8--8-8-8-8-0-8----
D|-7--7-7-7-0--3--3-3-3-3-0--7--7-7-7-0--8--8-8-8-8-0-8----

Chorus: (Play twice)
E|------------------------------------------------------------
B|------------------------------------------------------------
G|------------------------------------------------------------
D|-0---0---0-0-3---3-3-3-10---10-10-10-10-10---10-10-10-10-10-
A|-0---0---0-0-3---3-3-3-10---10-10-10-10-10---10-10-10-10-10-
D|-0---0---0-0-3---3-3-3-10---10-10-10-10-10---10-10-10-10-10-

Verse 2: (Play 4x)
E|---------------------------------------------------------
B|---------------------------------------------------------
G|---------------------------------------------------------
D|-7--7-9-7-0--3--3-3-3-3-0--7--7-9-7-0--8--8-8-8-8-0-8----
A|-7--7-7-7-0--3--3-3-3-3-0--7--7-7-7-0--8--8-8-8-8-0-8----
D|-7--7-7-7-0--3--3-3-3-3-0--7--7-7-7-0--8--8-8-8-8-0-8----

Chorus: (Play twice)
E|------------------------------------------------------------
B|------------------------------------------------------------
G|------------------------------------------------------------
D|-0---0---0-0-3---3-3-3-10---10-10-10-10-10---10-10-10-10-10-
A|-0---0---0-0-3---3-3-3-10---10-10-10-10-10---10-10-10-10-10-
D|-0---0---0-0-3---3-3-3-10---10-10-10-10-10---10-10-10-10-10-

Solo:
E|------------------------------------------------------------
B|------------------------------------------------------------
G|------------------------------------------------------------
D|------------------------------------------------------------
A|-(11)turbo-pick-(9)---------------(2)-----------------------
D|------------------------------------------------------------

Outro: same as verse

I'm not 100% sure about it, I have my guitar with me, but it won't stay
in tune, so I'm sorry if its wrong.
-David Grimes
 P.S. Put Jesus first in your life

Comments about this tab

sXcountry - 2005-06-27

i think the main riff sounds better like this:
D|-0--0-0-0--3--3-3-3/5-0--0-0-0--8--8-8-8-0-|
A|-5--5-7-5--3--3-3-3/5-5--5-7-5--8--8-8-8-0-|
D|-0--0-0-0--3--3-3-3/5-0--0-0-0--8--8-8-8-0-|


Add a comment/correction

Complimentary Christian Ringtones
Dadamobile and CGR have teamed up to bring your favorite Christian artists right to your phone. Sign up today and get 10 complementary ringtones!
Tab Country
Did you know CGR has a sister site w/ country guitar tabs? Well we do! Its called Tab Country. It has a great archive with a lot of country tabs.
Rockin Tabs
Are you looking for a site that has rock guitar tabs? Then Rockintabs.com is the place for you. It is a budding site with many rock guitar tabs. Submit your tab today.
Tab Gallery
Tab Gallery has a compilation of christian, rock, and country tabs all in one place. Come visit us.