Guitar Tabs
song title    band name

Join Us Today!

Don't strum alone...
be a part of the largest online Christian music community. Browse thousands of guitar tabs and chat w/ musicians like yourself.


It's Free!

Delirious - Happy Song, The

This tab has been rated a 4.00 out of 5 for accuracy. (11 votes)Sorry, but you must be logged in to rate this tab.
Click here to log-in, or you can click here to register.
(Registration is free)

All songs owned by corresponding publishing company. If you make copies of any song on this website, be sure to report your usage to CCLI.
The Happy Song

Transcibed by Benny ‘Johansson’ LeGros
 North Vancouver B.C. Canada
 Benlegros@hotmail.com
 And The ASAP Crew
 Words and Music By Martin Smith
 Title:  happy song
 Artist: deliriou5
 Album:Cutting Edge[Furious Records]
 Best song ever written hands down
CHORUS:
(G  G/F#  Em7  C9) x2

VERSE:
(G  G/F#  Em7  C9) x2

CHORUS

BRIDGE:
C9  G
C9  G
Am  C
Am  C

CHORUS

SOLO
Intro
|----------------|----------------|----------------|----------------|
|5---------------|8---------------|10--------------|15--------------|
|----------------|----------------|----------------|----------------|
|----------------|----------------|----------------|----------------|
|----------------|----------------|----------------|----------------|
|----------------|----------------|----------------|----------------|

                      b
|----------------|----^-----------|12>b------------|12>b------------|
|15---15---15----|20--19--17--15--|----12>b--------|-----12>b-------|
|----------------|----------------|---------12-----|----------12----|
|----------------|----------------|----------------|----------------|
|----------------|----------------|----------------|----------------|
|----------------|----------------|----------------|----------------|
 b
|17--15--14--12--|10--10--12--10--|----10--12------|19\20--17\15--22|
|----------------|----------------|12---------10\8-|----------------|
|----------------|----------------|----------------|----------------|
|----------------|----------------|----------------|----------------|
|----------------|----------------|----------------|----------------|
|----------------|----------------|----------------|----------------|
THOS HAS GOT TO BE PRETTY DARN CLOSE UNLESS I MADE A MISTAKE IN TABBING
IT CAUSE THIS IS EXACTLY HOW IT SOUNDS ON THE CD. AND I LISTEN TO IT
TONS .

Comments about this tab

calazoid - 2005-05-06

donke shone. i was looking for the solo!


freesoldier - 2005-12-14

it'd be sweet if you could show the fingering for C9.


wakeslide77 - 2006-01-10

the fingering for C9 is
e-0
B-3
G-0
D-2
A-3
E-0


Tyran001 - 2006-03-02

man, i been having some trouble with the solo. i duno what it is but i cant seem to get it down. i have to play this song next week for youth group, can anybody help?


Add a comment/correction

Complimentary Christian Ringtones
Dadamobile and CGR have teamed up to bring your favorite Christian artists right to your phone. Sign up today and get 10 complementary ringtones!
Tab Country
Did you know CGR has a sister site w/ country guitar tabs? Well we do! Its called Tab Country. It has a great archive with a lot of country tabs.
Rockin Tabs
Are you looking for a site that has rock guitar tabs? Then Rockintabs.com is the place for you. It is a budding site with many rock guitar tabs. Submit your tab today.
Tab Gallery
Tab Gallery has a compilation of christian, rock, and country tabs all in one place. Come visit us.