Guitar Tabs
song title    band name

Join Us Today!

Don't strum alone...
be a part of the largest online Christian music community. Browse thousands of guitar tabs and chat w/ musicians like yourself.


It's Free!

12 Stones - Back Up

This tab has been rated a 3.33 out of 5 for accuracy. (3 votes)Sorry, but you must be logged in to rate this tab.
Click here to log-in, or you can click here to register.
(Registration is free)

All songs owned by corresponding publishing company. If you make copies of any song on this website, be sure to report your usage to CCLI.
12 Stones
"Back Up"

This song was originaly written for the WWE star 'the rock' as an
entrance theme so don't be suprised if it sounds like it!
Tuning: drop D

intro:
e----------------------------------------------------------------------------
B----------------------------------------------------------------------------
G----------------------------------------------------------------------------
D---2---5---0---7-----2---2-2-2-2-5---5-5-5-5-0---0-0-0-0-7---7-7-7-7--------
A---2---5---0---7-----2---2-2-2-2-5---5-5-5-5-0---0-0-0-0-7---7-7-7-7--------
D---2---5---0---7-----2---2-2-2-2-5---5-5-5-5-0---0-0-0-0-7---7-7-7-7--------

min riff & chorus:
e----------------------------------------------------------------------------
B----------------------------------------------------------------------------
G----------------------------------------------------------------------------
D---2--2---2-2-2-2--5--5---5-0--0---5-7-5-7-7-5------------------------------
A---2--2---2-2-2-2--5--5---5-0--0---5-7-5-7-7-5------------------------------
D---2--2---2-2-2-2--5--5---5-0--0---5-7-5-7-7-5------------------------------

verse:
e----------------------------------------------------------------------------
B----------------------------------------------------------------------------
G----------------------------------------------------------------------------
D---2-2-X-2-2-X-X-2--0-0-X-0-0-X-X-0--2-2-X-2-2-X-X-2--0-0-X-0-0-X-X-0-------
A---2-2-X-2-2-X-X-2--0-0-X-0-0-X-X-0--2-2-X-2-2-X-X-2--0-0-X-0-0-X-X-0-------
D---2-2-X-2-2-X-X-2--0-0-X-0-0-X-X-0--2-2-X-2-2-X-X-2--0-0-X-0-0-X-X-0-------

That's about it.Pretty cool song.God Bless

Comments about this tab

FerriuS - 2004-09-18

It's Drop C


FerriuS - 2004-10-06

Play this tab exactly like shown here, but in Drop C


SSj Guitarist - 2004-10-28

What about the Bridge and Solo? lol. Peace

SSj


Timberwolf - 2005-01-02

I tabbed the solo with my tascam but they never put it on.


Add a comment/correction

Complimentary Christian Ringtones
Dadamobile and CGR have teamed up to bring your favorite Christian artists right to your phone. Sign up today and get 10 complementary ringtones!
Tab Country
Did you know CGR has a sister site w/ country guitar tabs? Well we do! Its called Tab Country. It has a great archive with a lot of country tabs.
Rockin Tabs
Are you looking for a site that has rock guitar tabs? Then Rockintabs.com is the place for you. It is a budding site with many rock guitar tabs. Submit your tab today.
Tab Gallery
Tab Gallery has a compilation of christian, rock, and country tabs all in one place. Come visit us.