Guitar Tabs
song title    band name

Join Us Today!

Don't strum alone...
be a part of the largest online Christian music community. Browse thousands of guitar tabs and chat w/ musicians like yourself.


It's Free!

This tab has been rated a 5.00 out of 5 for accuracy. (1 vote)Sorry, but you must be logged in to rate this tab.
Click here to log-in, or you can click here to register.
(Registration is free)

All songs owned by corresponding publishing company. If you make copies of any song on this website, be sure to report your usage to CCLI.
Show and Tell
Relient K

Intro

e-----------5------------------------------------5---------------5/6\5
b--7-7-5-57----6-6--7-7-5-57--6h5-3/5--7-7-5-57-----6-6-6---5----5/6\5
g---------------------------------------------------------------------
d---------------------------------------------------------------------
a---------------------------------------------------------------------
e---------------------------------------------------------------------

(In background)

e----------------------------------------------
b----------------------------------------------
g-7------------7------------7------------------
d-7--7--5--88--7--7--5--99--7--7--5--88-8-----7
a-5--7--5--88--5--7--5--99--5--7--5--88-6-----7
e----5--3--66-----5--3--77-----5--3--66-6-----5

Verse (listen to the song for strumming and palm muting)

e----------------------
b----------------------
g-7-----7--------------
d-7--5--7--7-----------
a-5--5--5--7-----------
e----3-----5-----------

Pre-chorus

e----------------------
b----------------------
g----------------------
d-9--5--9--5--9--5--7--
a-9--5--9--5--9--5--7--
e-7--3--7--3--7--3--5--

Chorus

e---------------------
b---------------------
g-7-------------------
d-7--7--9--5----------
a-5--7--9--5----------
e----5--7--3----------

-rob

Comments about this tab

acting2damax - 2004-10-18

What album is this off of?? doesn't sound or look familiar



skid - 2005-05-22

ya i agree neva heard of relient k doin this song, sound pretty cool though so if they do do it plz tell me where u found it


Satanisanerd117 - 2005-05-28

this song is a great song but it isnt on any of relient k's albums my guess is it is from one of thier first records when they didnt have a label because the sond quality of this song is not that good


Switchfoot_ - 2007-03-02

I have All Work And No Play (relient k album without label, not saying how i got it) but this song is not on it. Where and where did you hear it?


AnotherRob - 2007-04-26

I think this song, along with others like "Snake Charmer" and "My Cape is Stuck in the Phonebooth," was recorded by the band very early on, either before the "All Work and No Play EP" was recorded or just after, but either way I don't think an actual mastered studio quality recording was ever made. I have heard the song and in my opinion, it is quite good.


Add a comment/correction

Complimentary Christian Ringtones
Dadamobile and CGR have teamed up to bring your favorite Christian artists right to your phone. Sign up today and get 10 complementary ringtones!
Tab Country
Did you know CGR has a sister site w/ country guitar tabs? Well we do! Its called Tab Country. It has a great archive with a lot of country tabs.
Rockin Tabs
Are you looking for a site that has rock guitar tabs? Then Rockintabs.com is the place for you. It is a budding site with many rock guitar tabs. Submit your tab today.
Tab Gallery
Tab Gallery has a compilation of christian, rock, and country tabs all in one place. Come visit us.