Guitar Tabs
song title    band name

Join Us Today!

Don't strum alone...
be a part of the largest online Christian music community. Browse thousands of guitar tabs and chat w/ musicians like yourself.


It's Free!

This tab has been rated a 5.00 out of 5 for accuracy. (4 votes)Sorry, but you must be logged in to rate this tab.
Click here to log-in, or you can click here to register.
(Registration is free)

All songs owned by corresponding publishing company. If you make copies of any song on this website, be sure to report your usage to CCLI.
Title     : All For You
Artist    : Jonah 33
Album     : Jonah 33
Tabbed by : Mike Dominice
Email     : Mikethesupertone@cox.net

This is an awesome band, they definetly rock the house and their lyrics are 
straight up and not watered down at all.                                 

Tuning: Dropped D

Intro (Bass Only)                                                           
                                                                           
E|-----------------------------------------------------------------|
B|-----------------------------------------------------------------|
G|-----------------------------------------------------------------|
D|-----------------------------------------------------------------|
A|-----------------------------------------------------------------|
D|-0-0-0-0-0-0-0-0-8-8-8-8-8-8-8-8-3-3-3-3-3-3-3-3-2-2-2-2-2-2-2-2-|

E|-----------------------------------------------------------------|
B|-----------------------------------------------------------------|
G|-----------------------------------------------------------------|
D|-----------------------------------------------------------------|
A|-----------------------------------------------------------------|
D|-0-0-0-0-0-0-0-0-8-8-8-8-8-8-8-8-3-3-3-3-3-3-3-3-5-5-5-6-6-5-5-3-|

1st Verse (When Guitar Comes in)

E|-----------------------------------------------------------------|
B|-----------------------------------------------------------------|
G|-----------------------------------------------------------------|
D|-0-0-0---x-0-x-0-8-8-8---x-8-x-8-3-3-3---x-3-x-3-2-2-2---x-2-x-2-|
A|-0-0-0---x-0-x-0-8-8-8---x-8-x-8-3-3-3---x-3-x-3-2-2-2---x-2-x-2-|
D|-0-0-0---x-0-x-0-8-8-8---x-8-x-8-3-3-3---x-3-x-3-2-2-2---x-2-x-2-|

E|-----------------------------------------------------------------|
B|-----------------------------------------------------------------|
G|-----------------------------------------------------------------|
D|-0-0-0---x-0-x-0-8-8-8---x-8-x-8-3-3-3---x-3-x-3-5-5-5-6-6-5-5-3-|
A|-0-0-0---x-0-x-0-8-8-8---x-8-x-8-3-3-3---x-3-x-3-5-5-5-6-6-5-5-3-|
D|-0-0-0---x-0-x-0-8-8-8---x-8-x-8-3-3-3---x-3-x-3-5-5-5-6-6-5-5-3-|
						   pm-------------
PreChorus

E|-----------------------------------------------------------------|
B|-----------------------------------------------------------------|
G|-----------------------------------------------------------------|
D|-0-0-0-----------6-6-6-----------5-5-5-----------3-3-3---1-1-1---|
A|-0-0-0-----------6-6-6-----------5-5-5-----------3-3-3---1-1-1---|
D|-0-0-0-----------6-6-6-----------5-5-5-----------3-3-3---1-1-1---|

Chorus

E|-----------------------------------------------------------------|
B|-----------------------------------------------------------------|
G|-----------------------------------------------------------------|
D|-0---------------10--------------9---------------8---------------|
A|-0---------------10--------------9---------------8---------------|
D|-0---------------10--------------9---------------8---------------|
         just strum each of these for a measure   

Pre Verse

E|-----------------------------------------------------------------|
B|-----------------------------------------------------------------|
G|-----------------------------------------------------------------|
D|-0-0-0---0-0-0-0-8-8-8---8-8-8-8-3-3-3---3-3-3-3-2-2-2---2-2-2-2-|
A|-0-0-0---0-0-0-0-8-8-8---8-8-8-8-3-3-3---3-3-3-3-2-2-2---2-2-2-2-|
D|-0-0-0---0-0-0-0-8-8-8---8-8-8-8-3-3-3---3-3-3-3-2-2-2---2-2-2-2-|
           pm-----         pm-----         pm-----

Verse 2

E|-----------------------------------------------------------------|
B|-----------------------------------------------------------------|
G|-----------------------------------------------------------------|
D|-0-0-0-0-0-0-0-0-8-8-8-8-8-8-8-8-3-3-3-3-3-3-3-3-2-2-2-2-2-2-2-2-|
A|-0-0-0-0-0-0-0-0-8-8-8-8-8-8-8-8-3-3-3-3-3-3-3-3-2-2-2-2-2-2-2-2-|
D|-0-0-0-0-0-0-0-0-8-8-8-8-8-8-8-8-3-3-3-3-3-3-3-3-2-2-2-2-2-2-2-2-|
   pm-------------------------------------------------------------

E|-----------------------------------------------------------------|
B|-----------------------------------------------------------------|
G|-----------------------------------------------------------------|
D|-0-0-0-0-0-0-0-0-8-8-8-8-8-8-8-8-3-3-3-3-3-3-3-3-5-5-5-6-6-5-5-3-|
A|-0-0-0-0-0-0-0-0-8-8-8-8-8-8-8-8-3-3-3-3-3-3-3-3-5-5-5-6-6-5-5-3-|
D|-0-0-0-0-0-0-0-0-8-8-8-8-8-8-8-8-3-3-3-3-3-3-3-3-5-5-5-6-6-5-5-3-|
   pm----------------------------------------------open

E|-----------------------------------------------------------------|
B|-----------------------------------------------------------------|
G|-----------------------------------------------------------------|
D|-0-0-0---x-0-x-0-8-8-8---x-8-x-8-3-3-3---x-3-x-3-2-2-2---x-2-x-2-|
A|-0-0-0---x-0-x-0-8-8-8---x-8-x-8-3-3-3---x-3-x-3-2-2-2---x-2-x-2-|
D|-0-0-0---x-0-x-0-8-8-8---x-8-x-8-3-3-3---x-3-x-3-2-2-2---x-2-x-2-|

E|-----------------------------------------------------------------|
B|-----------------------------------------------------------------|
G|-----------------------------------------------------------------|
D|-0-0-0---x-0-x-0-8-8-8---x-8-x-8-3-3-3---x-3-x-3-5-5-5-6-6-5-5-3-|
A|-0-0-0---x-0-x-0-8-8-8---x-8-x-8-3-3-3---x-3-x-3-5-5-5-6-6-5-5-3-|
D|-0-0-0---x-0-x-0-8-8-8---x-8-x-8-3-3-3---x-3-x-3-5-5-5-6-6-5-5-3-|
						   pm-------------
Pre Chorus

use same riff for 1 guitar, but also add this second time with 
another guitar

E|-----------------------------------------------------------------|
B|-----------------------------------------------------------------|
G|-7-7-7-----------5-5-5-----------4-4-4-----------3-3-3---2-2-2---|
D|-----------------------------------------------------------------|
A|-5-5-5-----------3-3-3-----------2-2-2-----------1-1-1---0-0-0---|
D|-----------------------------------------------------------------|

Chorus

Bridge

Riff 1
E|----------------------------------------|
B|----------------------------------------|
G|-3-------------------------------7/5-5--|
D|-3---------------0----------------------|
A|-1---------------0---------------5/3-3--|
D|-----------------0----------------------|
Riff 2
E|----------------------------------------|
B|----------------------------------------|
G|----------------------------------------|
D|-0-3-5-0-6-5-0-5-6-0-5-3-0-6-5----------|
A|-0-3-5-0-6-5-0-5-6-0-5-3-0-6-5----------|
D|-0-3-5-0-6-5-0-5-6-0-5-3-0-6-5----------|
   pm--------------------------open

you switch between these two riffs.

Then You play the Chorus again, followed by Bridge Riff 2 (not muted).

That's it, Jonah 33's and awesome band. Their comes out in mid-June, 
but I got this CD off of a demo from my friend.

Good Luck,
Mike D

Comments about this tab

camedman47 - 2004-04-02

Hey this song is awesome and right as far as i can tell but im not a tabber so someone should help me out and tab God of My Life by Jonah 33.That would be sweet see ya.


ryandunn7 - 2004-06-10

www.freewebs.com/jonah33


vertical_one - 2004-07-06

Hey I'm new at this what is a Riff???


happyhotdogs - 2004-07-13

a riff is just a part that one guitarist plays it could be over and over or it could just be once. but yeah. I just got there CD and I tabbed out faith like that and then i came here and i was already up and was lke crap i did that for nothing


vertical_one - 2004-07-13

Thanks!!!!


pillarock3 - 2004-08-18

could someone please tab watching you die although the lyrics aren't great the guitar riffs is really cool.


ryandunn7 - 2004-09-24

hey guys ill put up the rejected tabs on my website if u send them to me
just chek out the site www.jonah33.tk, and send them to admin@jonah33.tk.
peace


fireproof50 - 2004-10-04

Someone should tab Jonah 33's song Shine it has some sweet guitar in it.


church-clown40 - 2005-06-04

pillarrock3, the song watching you die does have good lyrics. it's talking about how Jesus blood was spilt because of us and it's like a person watching Christ die on the cross knowing it was their fault that He had to die.


church-clown40 - 2005-06-04

or that's what the chorus sounds like atleast. the verses make it sound like something else. Anyway it's not a bad song.


scaby - 2005-11-17

Hey, could some one help me out thith the song 'The Diffrence', ist in the tab request forum, collecting ciber dust, nobody likes me :(, well God bless and Rock On Jonah


thegeniusboy05 - 2006-02-24

Actually, Watching You Die was written by John Cooper of Skillet and given to Jonah33 ...so Cooper wrote the words. Anyways, they say in concert that Watching You Die is about watching someone you know live without Christ and not doing anything about it. Great tab


Jesusrocker34 - 2006-03-15

Please, someone tab watching you die.


ChrstianMuzicn7 - 2006-06-19

Someone tab the difference plz. Thnx


ryanshanner - 2010-03-20

This tab is not completely accurate. Vince had me come "try out" for the band and this is one of the songs he wanted me to play. The second one listed is the better of the two if you are wanting to learn this song.


Add a comment/correction

Complimentary Christian Ringtones
Dadamobile and CGR have teamed up to bring your favorite Christian artists right to your phone. Sign up today and get 10 complementary ringtones!
Tab Country
Did you know CGR has a sister site w/ country guitar tabs? Well we do! Its called Tab Country. It has a great archive with a lot of country tabs.
Rockin Tabs
Are you looking for a site that has rock guitar tabs? Then Rockintabs.com is the place for you. It is a budding site with many rock guitar tabs. Submit your tab today.
Tab Gallery
Tab Gallery has a compilation of christian, rock, and country tabs all in one place. Come visit us.