Guitar Tabs
song title    band name

Join Us Today!

Don't strum alone...
be a part of the largest online Christian music community. Browse thousands of guitar tabs and chat w/ musicians like yourself.


It's Free!

Kutless - Run

This tab has been rated a 4.22 out of 5 for accuracy. (32 votes)Sorry, but you must be logged in to rate this tab.
Click here to log-in, or you can click here to register.
(Registration is free)

All songs owned by corresponding publishing company. If you make copies of any song on this website, be sure to report your usage to CCLI.
Run
Kutless


This tab is mostly to give you a basic idea of how to play the picking part 
for the verses. But since I hate incomplete tabs, I put the chords for the 
rest of the song in here also.


Intro:
C G D

Verse 1:
e-------------------------------------------
B-------------------------------------3-----
G-----0---------0---------0-------------0---
D---2---------2---------4-----4-----4-----4-
A---------0h3-------3/5-----------5---------
E-0-----------------------------------------
  ^ this should be changed to 2 if playing in drop D



There is a slight variation in the picking each time 
but basically you just pick out these chords
  Em     C     D (This is just a C moved up two frets)
e-0------0-----0--
B-0------1-----3--
G-0------0-----0--
D-2------2-----4--
A-2------3-----5--
E-0------0-----0--



Chorus:
  C5   G5   D5
e----------------------------------
B----------------------------------
G-5---------7----------------------
D-5----5----7----------------------
A-3----5----5----------------------
E------3----5----------------------


Verse 2:
Same as verse 1.


(Chorus)


Bridge:
Am Em C G Am Em D
Am Em C G Am Em D
Am Em C G Am Em D

These are picked in a similar fassion to the chords in the verses. 
(The D is the same D used in the verses)


(Chorus)

Comments about this tab

josh-rock - 2004-04-26

Hey! good job on the Picking in the verse! I see you're the only guy to figure that out so far :) Peace, JOSH


njsk8rboy - 2004-06-02

ya it's awsome that u figuered it out. it sound identical to the album(now if someone could get the acoustic part in skillet-savior)


3rdayGomer#1138 - 2004-08-23

Nice. I love the playability of that tab. Good Job. Thank you


ascension - 2004-08-26

Awesome job whoever gave you a bad rating is crazy....its perfect!!


Im4JC - 2004-08-30

O.K. i would have no clue if it's any good or any bad, i like can't read any of the tabs at all, im just lost so if someone could explain to me. Either you could post it up here or e-mail me: Bigmariobub@aol.com


lilnicky429 - 2004-09-18

hey, guys, i hate to be the barrer of bad knews, but i found several notes left out in the tab, ive only looked at the intro and verse, so here r my corrections:
Verse 1: 2nd ending:-
e--------------------------------------------- -----------------
B-------------------------------------3------- -----------------
G-----0-0-------0-0-------0-------------0----- ----0------------
D---2--2------2--2------4-----4-----4-----4--- ---4-4--------
A---------0h3-------3/5-----------5--5------5- 3/5---5--------
E-0------------------------------------------- ------------------




lilnicky429 - 2004-09-18

hey, its me again, the 2nd ending part is talking about after the space between the dashes


jamforchrist123 - 2005-05-02

It Sounds Perfect To Me. Does Anybody Know The Pedal Setup For This Song?


church-clown40 - 2005-05-12

AWESOME TAB!!! This sounds great! I think lilnicky429 is right on the correctins but otherwise awesome. jamforchrist123 what do you mean by pedal settings?


ryan_grooms22 - 2005-05-28

awesome tab!!!
god bless
-ryan_grooms


guitarist_51 - 2005-06-15

great tab! good work on this!! keep tabbing for those of use who cant =)


Highfive1177 - 2005-06-24

Ive recently submitted my tab to this song!....Its similar..but the intro and the verse riff are played slightly different. The song is also in drop D..like
the rest of Kutless's Self-titled album. Pretty good job though man..You beat me in posting this tab..Shame on you...even though its NOT QUITe Right....*)


Hanani 14 - 2006-03-09

Hey awesome tab!! It sounds great. Keep on tabbin


JC_Rocker - 2006-05-28

lilnicky is right. I've seen other tabs for this song that have the other notes added in and they sound alot more complete when you play it by itself(without the cd)


AndrewU - 2006-12-30

hey great tab love that song


kmiller - 2010-04-09

There is actually a variation in the picking
after the tabbed part there is a second line that is different

E|-----------------------------------------------------------
B|-----------------------------------------------------------
G|-----0---------0----------0--------0-----------------------
D|---2---------2---------4----4----4---4---------------------
A|---------0h3------3/5----------5-------5-------------------
E|-0---------------------------------------------------------

That is just rotated back and forth from the first tab.


Add a comment/correction

Complimentary Christian Ringtones
Dadamobile and CGR have teamed up to bring your favorite Christian artists right to your phone. Sign up today and get 10 complementary ringtones!
Tab Country
Did you know CGR has a sister site w/ country guitar tabs? Well we do! Its called Tab Country. It has a great archive with a lot of country tabs.
Rockin Tabs
Are you looking for a site that has rock guitar tabs? Then Rockintabs.com is the place for you. It is a budding site with many rock guitar tabs. Submit your tab today.
Tab Gallery
Tab Gallery has a compilation of christian, rock, and country tabs all in one place. Come visit us.