Guitar Tabs
song title    band name

Join Us Today!

Don't strum alone...
be a part of the largest online Christian music community. Browse thousands of guitar tabs and chat w/ musicians like yourself.


It's Free!

This tab has not yet been rated for accuracy.Sorry, but you must be logged in to rate this tab.
Click here to log-in, or you can click here to register.
(Registration is free)

All songs owned by corresponding publishing company. If you make copies of any song on this website, be sure to report your usage to CCLI.
===============================================
= Paramaecium: THE UNNATURAL CONCEPTION IN TWO=
= PARTS: THE BIRTH AND THE MASSACRE OF THE    =
= INNOCENTS                                   =
= From the Album "Exumed of the Earth"        =
= http://www.paramaecium.com                  = 
===============================================


Credits:
Music by  A.Tompkins & J. Sherlock & J. De Ron 
Lyrics: A Tompkins

This is a very long song; I broke it into 5 parts to make 
the tab easier to understand. Most the riffs are repeated 
over and over again, which would make this tab quite extensive 
if I had written all the loops. Listen to the song to figure 
out the right time to change riffs and get the right timing.

Tab explanation
# = harmonics
*** = Repeat the section underlined buy *
PM   = Palm Mute


Part I

Intro        Riff 1
PM    PM
....  ..........
|---||-------------------------|
|---||-------------------------|
|---||-------------------------|
|-2-||-------------------------|
|-2-||-2-2-2-2-2-2-8-7-8-4-5-4-|
|-0-||-0-0-0-0-0-0-6-5-6-2-3-2-|

Play the intro for a long time then goes right into the Riff 1.


       Bridge 1
|---------------------|
|---------------------|
|---------------------|
|---------------------|
|-9999999-4-5555555-4-|
|-7777777-2-3333333-2-|


         Riff 1                  Bridge 2
PM
.............
|-------------------------||---------------|
|-------------------------||---------------|
|-------------------------||---------------|
|-------------------------||---------------|
|-2-2-2-2-2-2-8-7-8-4-5-4-||-5-4-5-7-5-4-2-|
|-0-0-0-0-0-0-6-5-6-2-3-2-||-3-2-3-5-3-2-0-|

         Riff 1                  Brigde 3
PM
.............
|-------------------------||----------------|
|-------------------------||----------------|
|-------------------------||----------------|
|-------------------------||----------------|
|-2-2-2-2-2-2-8-7-8-4-5-4-||-5-4-5-7-9-10-9-|
|-0-0-0-0-0-0-6-5-6-2-3-2-||-3-2-3-5-7-8--7-|

Riff 1                     end
PM
.............
|-------------------------||---|
|-------------------------||---|
|-------------------------||---|
|-------------------------||---|
|-2-2-2-2-2-2-8-7-8-4-5-4-||-2-|
|-0-0-0-0-0-0-6-5-6-2-3-2-||-0-|

This is the end of the first part. Listen to the song to find the sequence of the riffs.

Part II

GTR1			Riff 2
|---------------------------------------------------|
|---------------------------------------------------|
|---------------------------------------------------|
|---------------------------------------7-----------|
|-7-9-7---7-9-10-9h10p9-7-9-7----7-9-10---10-9h10p9-|
|-------10--------------------10--------------------|

GTR2
|---| This part is played a couple of times by the Gtr II along the GTR I line,
|---| Listen to the song to know when to hit this note.
|---|
|---|
|-2-|
|-0-|

GTR2			Riff 2
|--------------------------------------------------------------|
|--------------------------------------------------------------|
|--------------------------------------------------------------|
|------------------9---------------------------9-10-9----------|
|-10-12-10-9-10-12---12h14p12-10-12-10-9-10-12--------12h13p12-|
|--------------------------------------------------------------|

Then GRT1 and GRT2 play Riff 2.

both GTRs play the Em chord, which is the start of the Riff 4.

Part III

		Riff 4
|----------------|--------------|----------------|
|----------------|--------------|----------------|
|----------------|--------------|----------------|
|----------------|--------------|----------------|
|-2--7-6---5---3-|-2--7-6---5---|-2--7-6---5---3-|
|-0------7---6-1-|-0------7---6-|-0------7---6-1-|

		Riff 5
 PM
 ...............
|----------------------------|
|----------------------------|
|----------------------------|
|----------------------------|
|-2-2-2---------7-6---5----3-|
|-0-0-0--7-6-5------7---6--1-|

Bridge 4
|-----------------|-----------------|-----------------|-----------------|
|-----------------|-----------------|-----------------|-----------------|
|-----------------|-----------------|-----------------|-----------------|
|-----------------|-----------------|-----------------|-----------------|
|-2--7-6---5----3-|-2--7-6---5----3-|-2--7-6---5----3-|-2--7-6---5----3-|
|-0------7---6--1-|-0------7---6--1-|-0------7---6--1-|-0------7---6--1-|

Riff 6
P.M.
..................................
||---||------------||---||------------|
||---||------------||---||------------|
||---||------------||---||------------|
||---||------------||---||------------|
||-2-||-3--6--5--3-||-2-||-3--6--5--3-|
||-0-||-1--4--3--1-||-0-||-1--4--3--1-|
 *****              *****

Riff 8
 P.M.
 ..................................................
                       |-3-| = fast hammering!
||---||---------||---||--------||---||---------||---||------|
||---||---------||---||--------||---||---------||---||------|
||---||---------||---||--------||---||---------||---||------|
||---||---------||---||-----2h3||---||---------||---||-3-#5#|
||-2-||-3-2-3-2-||-2-||-2h3----||-2-||-3-2-3-2-||-2-||------|
||-0-||-1-0-1-0-||-0-||--------||-0-||-1-0-1-0-||-0-||------|
 *****           *****       *****           *****
Repeat the parts marked with the "****" lots of time

Bridge 5
|-----|
|-----|
|-----|
|-5-4-|
|-----|
|-----|


Riff 9
|-------------------------------|
|-------------------------------|
|-------------------------------|
|----------------------#5-------|
|-2-2-1--4-3-------4-3-----2-3--|
|-0----2-----3-3-4-------0------|


		Riff 4
|----------------|--------------|----------------|
|----------------|--------------|----------------|
|----------------|--------------|----------------|
|----------------|--------------|----------------|
|-2--7-6---5---3-|-2--7-6---5---|-2--7-6---5---3-|
|-0------7---6-1-|-0------7---6-|-0------7---6-1-|


Riff 5

 PM
 ...............
|-----------------------------|
|-----------------------------|
|-----------------------------|
|-----------------------------|
|-2-2-2-2-5-4-2--7-6---5----3-|
|-0-0-0-0-3-2-0------7---6--1-|


Part IV (Violin part)


Riff 10
|--------------------------------|
|--------------------------------|
|--------------------------------|
|--7-5-4-5-4--7-5-4-5--7-5-4-5-4-|
|-7----------7--------7----------|
|--------------------------------|

Riff 11
|---------------------------------|
|---------------------------------|
|---9----------------9------------|
|-7---10-9-10-9h10-7---10-9-10-12-|
|---------------------------------|
|---------------------------------|

Then repeat both riffs 10 and 11. These riffs folows the violin melody.

Riff 4
|----------------|--------------|----------------|
|----------------|--------------|----------------|
|----------------|--------------|----------------|
|----------------|--------------|----------------|
|-2--7-6---5---3-|-2--7-6---5---|-2--7-6---5---3-|
|-0------7---6-1-|-0------7---6-|-0------7---6-1-|

Riff 5
|-----------------------------|
|-----------------------------|
|-----------------------------|
|-----------------------------|
|-2-2-2-2-5-4-2--7-6---5----3-|
|-0-0-0-0-3-2-0------7---6--1-|

Riff 12
|----------------|----------------------------|
|----------------|----------------------------|
|----------------|----------------------------|
|----------------|----------------------------|
|-2--7-6---5---3-|-2--7-6---5-----------------|
|-0------7---6-1-|-0------7---6-5-6-3-4-2-3-0-|


Riff 1
|-------------------------|
|-------------------------|
|-------------------------|
|-------------------------|
|-2-2-2-2-2-2-8-7-8-4-5-4-|
|-0-0-0-0-0-0-6-5-6-2-3-2-|

Then play 2x
|-------------------------||---------------|
|-------------------------||---------------|
|-------------------------||---------------|
|-------------------------||---------------|
|-2-2-2-2-2-2-8-7-8-4-5-4-||-5-4-5-7-5-4-2-|
|-0-0-0-0-0-0-6-5-6-2-3-2-||-3-2-3-5-3-2-0-|

Then play 1x
|-------------------------||----------------|
|-------------------------||----------------|
|-------------------------||----------------|
|-------------------------||----------------|
|-2-2-2-2-2-2-8-7-8-4-5-4-||-5-4-5-7-9-10-9-|
|-0-0-0-0-0-0-6-5-6-2-3-2-||-3-2-3-5-7-8--7-|

Goes back to riff I slowing down as it aproaches the end.
Riff 1
|-------------------------|
|-------------------------|
|-------------------------|
|-------------------------|
|-2-2-2-2-2-2-8-7-8-4-5-4-|
|-0-0-0-0-0-0-6-5-6-2-3-2-|

Riff 3
|-----------------------------------------------------|
|-----------------------------------------------------|
|-----------------------------------------------------|
|---------------------------------------7-------------|
|-7-9-7---7-9-10-9h10p9-7-9-7----7-9-10---10-9h10p9-7-|
|-------10--------------------10----------------------|


|---| This part is played a clouple of times by the Gtr II along the GTR I line,
|---| Listen to the song to know when to hit this note.
|---|
|---|
|-2-|
|-0-|

Riff 3 Gtr II
|--------------------------------------------------------------|
|--------------------------------------------------------------|
|--------------------------------------------------------------|
|------------------9---------------------------9-10-9----------|
|-10-12-10-9-10-12---12h13p12-10-12-10-9-10-12--------12h13p12-|
|--------------------------------------------------------------|


GTR2
|---| This part is played a clouple of times by the GRT 2 along the GTR1 line,
|---| Listen to the song to know when to hit this note.
|---|
|---|
|-2-|
|-0-|

Comments about this tab

No comments/corrections found. Add your own

Complimentary Christian Ringtones
Dadamobile and CGR have teamed up to bring your favorite Christian artists right to your phone. Sign up today and get 10 complementary ringtones!
Tab Country
Did you know CGR has a sister site w/ country guitar tabs? Well we do! Its called Tab Country. It has a great archive with a lot of country tabs.
Rockin Tabs
Are you looking for a site that has rock guitar tabs? Then Rockintabs.com is the place for you. It is a budding site with many rock guitar tabs. Submit your tab today.
Tab Gallery
Tab Gallery has a compilation of christian, rock, and country tabs all in one place. Come visit us.