Guitar Tabs
song title    band name

Join Us Today!

Don't strum alone...
be a part of the largest online Christian music community. Browse thousands of guitar tabs and chat w/ musicians like yourself.


It's Free!

This tab has been rated a 5.00 out of 5 for accuracy. (1 vote)Sorry, but you must be logged in to rate this tab.
Click here to log-in, or you can click here to register.
(Registration is free)

All songs owned by corresponding publishing company. If you make copies of any song on this website, be sure to report your usage to CCLI.
Shaken Up
Delirious?
CD: Cutting Edge
C1995 Curious? Music
Tab- Steve Cruickshank (postlambjam@hotmail.com)


Standard-tuned guitars

Intro:  Dno3  Gsus2  (bass plays D and G)
e-------5-----5-----------------------------------
B-------3-----3-----------------------------------
G-------2-----0-----------------------------------
D-------0-----0-----------------------------------
A-------------------------------------------------
E-------------------------------------------------

Verse:
(Dno3  Gsus2) x2

then:
D/F#      Gsus2

Verse

Chorus:
D/F#  Gsus2  D/F#  Gsus2  A  Asus  A
D/F#  Gsus2  D/F#  Gsus2  A  Asus  A
D/F#  G  Bm7  Em7  Dno3

Verse

Solo (I think it might be with an ebow)
e---------------------------------------14~--15\14--0----------------
B---------8~~----/12-10~~-------15~~---------------15-15---/12-10----
G--/7~~--------------------9/12--------------------------------------
D--------------------------------------------------------------------
A--------------------------------------------------------------------
E--------------------------------------------------------------------
---Dno3   Gsus2   Dno3       Gsus2      Dno3               Gsus2

e----22~--21\14~----15\----------------------------------------------
B-----------------------15----12~~~~~~-------------------------------
G-----------------------------14/16----------------------------------
D--------------------------------------------------------------------
A--------------------------------------------------------------------
E--------------------------------------------------------------------
----Dno3            Gsus2


Outro:
Martin plays various D chords on his acoustic
Spend some time on each chord, alternating intensity
e---2----0----2----5---12----3----2----0----5-------------------
B---3----3----3----3---10----3----3----3----3-------------------
G---2----2----2----2----9----2----2----2----2-------------------
D---0----0----0----0----0----0----0----0----0-------------------
A---------------------------------------------------------------
E---------------------------------------------------------------
----D    D2   D   Dno3  D?  Dsus  D    D2  Dno3 (in that order)


Chords: (these are just suggested positions)
Dno3    xx0235
Gsus2   xx0035 or 3x0035
D/F#    xx4235
A       x02225
Asus    x02235
Bm7     x20230
Em7     022030

Comments about this tab

No comments/corrections found. Add your own

Complimentary Christian Ringtones
Dadamobile and CGR have teamed up to bring your favorite Christian artists right to your phone. Sign up today and get 10 complementary ringtones!
Tab Country
Did you know CGR has a sister site w/ country guitar tabs? Well we do! Its called Tab Country. It has a great archive with a lot of country tabs.
Rockin Tabs
Are you looking for a site that has rock guitar tabs? Then Rockintabs.com is the place for you. It is a budding site with many rock guitar tabs. Submit your tab today.
Tab Gallery
Tab Gallery has a compilation of christian, rock, and country tabs all in one place. Come visit us.