Guitar Tabs
song title    band name

Join Us Today!

Don't strum alone...
be a part of the largest online Christian music community. Browse thousands of guitar tabs and chat w/ musicians like yourself.


It's Free!

Webb, Derek - Wedding Dress

This tab has been rated a 3.67 out of 5 for accuracy. (9 votes)Sorry, but you must be logged in to rate this tab.
Click here to log-in, or you can click here to register.
(Registration is free)

All songs owned by corresponding publishing company. If you make copies of any song on this website, be sure to report your usage to CCLI.
Wedding Dress
Derek Webb

My youth group leader figured this out, and it's a ridiculously good song,
so I decided to put it on here. Enjoy!

Capo 2

Intro:
e-----------------------
B-----------------------
G------0--0h2-0---------
D---0h2-2-------0h2-0---
A-3-------------------0-
E-----------------------
Am F (play 2 times)

e-----------------------
B-----------------------
G------0--0h2-0---------
D---0h2-2-------0h2-0---
A-3-------------------0-
E-----------------------

Verse:
Am F    e------------------------
        B------------------------
        G-------0--0h2-0---------
        D----0h2-2-------0h2-0---
        A-3--------------------0-
        E------------------------  (play 7 times)
Am C G

Chorus:

F Am C G (play 2 times)
 
Verse 2:

Am F 
e-----------------------
B-----------------------
G------0--0h2-0---------
D---0h2-2-------0h2-0---
A-3-------------------0-
E-----------------------(play 2 times)


Am F    e------------------------
        B------------------------
        G-------0--0h2-0---------
        D----0h2-2-------0h2-0---
        A-3--------------------0-
        E------------------------  (play 7 times)
Am C G

Chorus

Bridge:

F Am C G (play 2 times)

Chorus 

Chorus

You can kind of figure out how you want to end it by yourself. That's
fairly accurate, so I hope you like it. I think that's all, so may the
Holy Spirit continue to work through you musically.
In Him,
Matt

Comments about this tab

sterfa02 - 2004-01-09

The riff is close, but I think this is closer...

1 . . . 2 . . . 3 . . . 4 . . .
E |-------------------------------|
B |------1---------1--------------|
G |----0-------0---0h2-0----------|
D |--------0h2---2---------2p0----|
A |3---------------------------3--|
E |-------------------------------|

Also, the G chord referred to throughout the choruses should really be a C chord but instead a C as the base note, it's been walked down to a B as the base and the E on the D string dropped.

The Bridge should be G Am G Am G Am C F

Great song!


SupaNova - 2004-03-24

Maybe this was a typo, but I've found that the song sounds closer to Derek's album version if you put a capo on the 3rd fret. Still, this is a very nice tab.


coolspence02 - 2004-04-06

I love this song also. I think that today we have taught ourselves that all christian music has to be pretty. I mean this song is beautiful, but what I'm saying is that it is real. It says what most of us are scared to say. Im proud of you Derek. I cant wait to hear It at my church on Sunday Morning. I might even go play it there. That will be fun.


malhotrasean84 - 2004-04-11

hey this tab comes very close but I figured out somethings....

the capo is on the 3rd and b is tuned to c. so if your playing am or in this case it would be Gm, you would leave the 2nd string open. Also the riff in the begining also is a little different.


FollowtheKing - 2005-03-12

The intro is wrong. Check the other tab for the correct intro


thebigg5011 - 2006-01-19

don't look at the other tab for the intro. this one is much closer, but i think it's off by just a little. it should be
e-------------------------
B-------------------------
G------0--0h2-0-----------
D---0h2-2-------2p0---0---
A-3-----------------3---0-
E-------------------------

and follow that with Am and C. the capo should also be on the 4th fret.


thebigg5011 - 2006-01-20

sorry, the capo's on the 3rd fret and it ends with Am F


Add a comment/correction

Complimentary Christian Ringtones
Dadamobile and CGR have teamed up to bring your favorite Christian artists right to your phone. Sign up today and get 10 complementary ringtones!
Tab Country
Did you know CGR has a sister site w/ country guitar tabs? Well we do! Its called Tab Country. It has a great archive with a lot of country tabs.
Rockin Tabs
Are you looking for a site that has rock guitar tabs? Then Rockintabs.com is the place for you. It is a budding site with many rock guitar tabs. Submit your tab today.
Tab Gallery
Tab Gallery has a compilation of christian, rock, and country tabs all in one place. Come visit us.