Guitar Tabs
song title    band name

Join Us Today!

Don't strum alone...
be a part of the largest online Christian music community. Browse thousands of guitar tabs and chat w/ musicians like yourself.


It's Free!

Disciple - God Of Elijah

This tab has been rated a 3.20 out of 5 for accuracy. (5 votes)Sorry, but you must be logged in to rate this tab.
Click here to log-in, or you can click here to register.
(Registration is free)

All songs owned by corresponding publishing company. If you make copies of any song on this website, be sure to report your usage to CCLI.
Disciple
God of Elijah
tabbed by Pat


Okay, i seen several versions of this song on this site
and they are both a little off, so here is the correct
version, peace.


tuned it to drop d and then a half step down

  repeat several times and then add a pinch harmonic at the end
E--------------------------------
A--------------------------------
B--------------------------------
G--------------------------------
D---3x-3-6-6--0x-3-6-5-----------
A---3x-3-6-6--0x-3-6-5----<5>~~~-
D---3x-3-6-6--0x-3-6-5-----------

then the bass starts the verse off

G-----------------------
D-----------------------
A-----------------------
D---1-0--3h0--5h7-5h7---

The guitar kicks in with a little scratchy sound with
 a wah pedal going on, swelling up and down slowly

E----------------
A----------------
B---3xxxxxxxxx---
G----------------
D----------------
A----------------
D----------------

then guitar kicks in for the prechorus

E--------------------------
A--------------------------
B--------------------------
G--------------------------  repeat as nessacary
D---1-0--3h0---5h7--5h7----
A---1-0--3h0---5h7--5h7----
D---1-0--3h0---5h7--5h7----

then here comes the chorus
repeat it

E--------------------------------------
B--------------------------------------
G--------------------------------------
D---0--0--8-8--8-8--3--6x-6x-5x-3x-----
A---0--0--8-8--8-8--3--6x-6x-5x-3x-----
D---0--0--8-8--8-8--3--6x-6x-5x-3x-----

bridge after chorus
E------------------------------------------------
B------------------------------------------------
G------------------------------------------------
D--6p5-3-0--0---6p5-3---0--0---6p5-3-0-6p5-3-0--
A--6p5-3-0--0---6p5-3---0--0---6p5-3-0-6p5-3-0--
D--6p5-3-0--0---6p5-3---0--0---6p5-3-0-6p5-3-0--

ending
add some effects to the end like wah 

E--------------------------
A--------------------------
B--------------------------
G--------------------------
D---3x-3-6-6--0x-3-6-5--0--
A---3x-3-6-6--0x-3-6-5--0--
D---3x-3-6-6--0x-3-6-5--0--


Peace in Jesus.

Comments about this tab

Disciple Freak - 2006-05-05

i'm sorry, that didn't sound like it. the intro should be

E------------------------------------------------
B------------------------------------------------
G------------------------------------------------
D------------------------------------------------
A---0-0--3-3--2-2--5-5---------------------------
D---0-0--3-3--2-2--5-5---------------------------



Add a comment/correction

Complimentary Christian Ringtones
Dadamobile and CGR have teamed up to bring your favorite Christian artists right to your phone. Sign up today and get 10 complementary ringtones!
Tab Country
Did you know CGR has a sister site w/ country guitar tabs? Well we do! Its called Tab Country. It has a great archive with a lot of country tabs.
Rockin Tabs
Are you looking for a site that has rock guitar tabs? Then Rockintabs.com is the place for you. It is a budding site with many rock guitar tabs. Submit your tab today.
Tab Gallery
Tab Gallery has a compilation of christian, rock, and country tabs all in one place. Come visit us.