Guitar Tabs
song title    band name

Join Us Today!

Don't strum alone...
be a part of the largest online Christian music community. Browse thousands of guitar tabs and chat w/ musicians like yourself.


It's Free!

Delirious - Revival Town

This tab has been rated a 4.80 out of 5 for accuracy. (5 votes)Sorry, but you must be logged in to rate this tab.
Click here to log-in, or you can click here to register.
(Registration is free)

All songs owned by corresponding publishing company. If you make copies of any song on this website, be sure to report your usage to CCLI.
********************************************************************
Revival Town
by: deliriou5
Tab By: Elliot Whiting
********************************************************************

Intro:
D/F# Asus4 D Asus4

Verse:
(D/F#  Asus4  D  Asus4) x4

Pre-chorus
Riff:
  Em7    D     G/B   Asus4
|--------------------------|
|---3------3------3-----3--|
|--0------2------2-----2---|
|-2------0-----------------|
|--------------2-----0-----|
|--------------------------|

(Em7  D  G/B  Asus4) x2


Chorus
Riff:
  D          G/B          Asus4       G
|-------------------------------------------------|
|----3---3-------3---3-------3---3-------3---3----|
|--2---2---2---2---2---2---2---2---2---0---0---0--|
|-0---0---0---------------------------------------|
|-------------2---2---2---0---0---0---------------|
|-------------------------------------3---3---3---|

(D  G/B  Asus4  G) x2


Verse

Guitar fill:
|--------------------------|
|--------------------------|
|--7--9br--7----7--9br--7--|
|--------------------------|
|--------------------------|
|--------------------------|

Verse
Pre-chorus
Chorus

BRIDGE:
 single
¬notes¬
G F# E  Em7 Asus4 x2

Riff:
   D           D/C#        D/C         G
|--------------------------------------3------|
|-----3---3-------3---3-------3---3----3------|
|---2---2---2---2---2---2---2---2---2--0------|
|--0---0---0---------------------------0------|
|--------------4---4---4---3---3---3---2------|
|--------------------------------------3------|


 single
¬notes¬
G F# E  Em7 Asus4 x2

D D/C# D/C G

Verse
Pre-chorus
Chorus

Fade out with choir and solo.
~~~~~~~~~~~~~~~~~~~~~~~~~~~~~~~~~~~~~~~~~~~~

Solo:(starts like this(vocal line) then improvises around it)
|------------------------------------------------
|------------------------------------------------
|xx-xxxx-7~-7~-7-7--9~-7--9~-7~------------------
|xx-xxxx------------------------9~-9~-9p7-9-9p7--
|xx-xxxx-----------------------------------------
|------------------------------------------------

 -------------------------------|
 -------------------------------|
 ---7~-7~-7-7--11-9~-7~---------|
 -----------------------7~~~~~--|
 -------------------------------|
 -------------------------------|

Chords
D/F#:  xx423x
Asus4: x0223x
D:     xx023x
Em7:   02203x
G/B:   x2023x
G:     320033

Comments about this tab

mmggppmgp - 2004-09-13

its pretty good fo me


Add a comment/correction

Complimentary Christian Ringtones
Dadamobile and CGR have teamed up to bring your favorite Christian artists right to your phone. Sign up today and get 10 complementary ringtones!
Tab Country
Did you know CGR has a sister site w/ country guitar tabs? Well we do! Its called Tab Country. It has a great archive with a lot of country tabs.
Rockin Tabs
Are you looking for a site that has rock guitar tabs? Then Rockintabs.com is the place for you. It is a budding site with many rock guitar tabs. Submit your tab today.
Tab Gallery
Tab Gallery has a compilation of christian, rock, and country tabs all in one place. Come visit us.