Guitar Tabs
song title    band name

Join Us Today!

Don't strum alone...
be a part of the largest online Christian music community. Browse thousands of guitar tabs and chat w/ musicians like yourself.


It's Free!

Delirious - Obsession

This tab has been rated a 5.00 out of 5 for accuracy. (2 votes)Sorry, but you must be logged in to rate this tab.
Click here to log-in, or you can click here to register.
(Registration is free)

All songs owned by corresponding publishing company. If you make copies of any song on this website, be sure to report your usage to CCLI.
Obsession
Delirious

This tab does not include the ebow intro.

This is the intro after a few measures of bass and drums.

e---------------------------------------------|
b-------3-------3-------3-------3-------------|
g-----0-------0-------0-------0---------------|  Repeat over
d---4-------4-------4-------4-----------------|  and over
a-2-------0-----------------------------------|  again until chorus
E-----------------3-------0-------------------|

Chorus is just:
G - A - D - D
G - A - D - D

After you get past the chorus twice and it starts to repeat, you play the
solo:

e----------------------------------------------------------------------------|
b----------------------------------------------------------------------------|
g-12-11--9--7--9--6--7--9--/12-11--9--7-9~-9-11-12-11--9--7--9--6--7--9--7-7:|
d----------------------------------------------------------------------------|
a----------------------------------------------------------------------------|
E----------------------------------------------------------------------------|

Then repeat the same solo right after that (if your playing the "Live and IN
The Can" version) with distortion.

Thanx. Stay with God always. Delirious stinkin' rocks!

Comments about this tab

NXT2HIM'02 - 2004-02-14

The part where you get past the Chorus twice and then start to repeat is actually.

e-15-14--12--10--12--9--10-12-/15-14--12--10~10---
B-------------------------------------------------
G-------------------------------------------------
D-------------------------------------------------
A-------------------------------------------------
E-------------------------------------------------


Add a comment/correction

Complimentary Christian Ringtones
Dadamobile and CGR have teamed up to bring your favorite Christian artists right to your phone. Sign up today and get 10 complementary ringtones!
Tab Country
Did you know CGR has a sister site w/ country guitar tabs? Well we do! Its called Tab Country. It has a great archive with a lot of country tabs.
Rockin Tabs
Are you looking for a site that has rock guitar tabs? Then Rockintabs.com is the place for you. It is a budding site with many rock guitar tabs. Submit your tab today.
Tab Gallery
Tab Gallery has a compilation of christian, rock, and country tabs all in one place. Come visit us.