Guitar Tabs
song title    band name

Join Us Today!

Don't strum alone...
be a part of the largest online Christian music community. Browse thousands of guitar tabs and chat w/ musicians like yourself.


It's Free!

This tab has not yet been rated for accuracy.Sorry, but you must be logged in to rate this tab.
Click here to log-in, or you can click here to register.
(Registration is free)

All songs owned by corresponding publishing company. If you make copies of any song on this website, be sure to report your usage to CCLI.
Yes
Stavesacre
from Self-titled release
Copyright 2002 Car Seven Tractor publishing

DADGBE

There are obviously a couple guitar parts as well as a cello or something. 
I'm trying to get the major parts and melody line here for one guitar.

Part A. Intro/Verse
-------------------------------------------------------------------
-------------------------------------------------------------------
-11---11----11-11-9-9--7---7---7-7--9-9-7---7---7-7-9-9-7--7--7-7--
-----0----0--0-----0------0---0-----------0---0--0--------0--0-----
---9----9----------------5---5------7-7--0---0------7-7--5--5------
-9----9-----9--9--9-9--5---5---5-5--0---0---0---0-0-----5--5--5-5--

Fingerpicked (this isn't really exact. just mess around with it. 
strum it for all I care)

Part B. Pre-chorus
-------------------------------------------------
----------------------------10---10-----10---10--
-0--0--0----0--0--0-------7----7------7----7-----
---0--0--0----0--0--0----0----------0------------ 2x
--2--2--2----5--5--5-----------------------------
-2--2--2-2--5--5--5-5--0-------------------------

Part C. Chorus

----------------------               
----------------------                 
-11~~---7~~----12-11--
-9~~----5~~----0--0--- 4x
-9~~----5~~----0--0---
-9~~----5~~----0--0--- 

Part D (second chorus)
-------------------
-------------------
-------7--9--12-11-
-9--11-5-----------
-9--9--5--7--10-9--
-9--9--5--0--0--0--

Part E Same chords plucked like part B. With this melody sorta played over it.

--------------------------------------------
--3--2--0-----------------------------------
-----------0-2------------------------------
----------------0---5---4-----5---4---------
--------------------------------------------
---------------------------0----------------

That's most of it. You can effectively play it that way. 
I want to see what they do live. Any comments, questions, corrections.
Please! by all means, write: Shotoflove440@yahoo.com

Comments about this tab

No comments/corrections found. Add your own

Complimentary Christian Ringtones
Dadamobile and CGR have teamed up to bring your favorite Christian artists right to your phone. Sign up today and get 10 complementary ringtones!
Tab Country
Did you know CGR has a sister site w/ country guitar tabs? Well we do! Its called Tab Country. It has a great archive with a lot of country tabs.
Rockin Tabs
Are you looking for a site that has rock guitar tabs? Then Rockintabs.com is the place for you. It is a budding site with many rock guitar tabs. Submit your tab today.
Tab Gallery
Tab Gallery has a compilation of christian, rock, and country tabs all in one place. Come visit us.