Guitar Tabs
song title    band name

Join Us Today!

Don't strum alone...
be a part of the largest online Christian music community. Browse thousands of guitar tabs and chat w/ musicians like yourself.


It's Free!

Relient K - Gibberish

This tab has been rated a 3.67 out of 5 for accuracy. (3 votes)Sorry, but you must be logged in to rate this tab.
Click here to log-in, or you can click here to register.
(Registration is free)

All songs owned by corresponding publishing company. If you make copies of any song on this website, be sure to report your usage to CCLI.
Artist: Relient K
Album: Two Left's Don't Make a Right ...... but Three Do
Song: Gibberish
Tabbed by: Sam(updogg89@yahoo.com)

Standard Tuning
Intro
e[---------------------------------------------------------------------------]
b[---------------------------------------------------------------------------]
g[-6-77--44-9-9---44-55---7777--99999999--12121212121212---------------------]
d[-6-77--44-9-9---44-55---7777--99999999--12121212121212---------------------]
a[-4-55--22-7-7---22-33---5555--77777777--10101010101010---------------------]
E[---------------------------------------------------------------------------]


Verses (play chord continusly until chorus, PM when you heat it on the Cd)
e[-----] 
b[-----]
g[--5--]
d[--5--]
a[--3--]
E[-----]

Chorus
e[---------------------------------------------]
b[---------------------------------------------]
g[-999-777-101010-555--------------------------]
d[-999-777-101010-555--------------------------]
a[-777-555-8-8-8--333--------------------------]
E[---------------------------------------------]

I am 100% sure this Tab is correct this is only my 2nd Tab, BUT I am sure that 
it is right. E-mail me with your questions, comments, or other Relient K songs 
that you would like me to TAB. Thanks and GOD BLESS!!!!!! 


                                                           Sam Smith
                                                          <><      ><>
                                                          ****========
                                                          ****========
                                                          ****======== 
                                                          ============
                                                          

Comments about this tab

gsus_freak7 - 2006-01-14


Its pretty good, not exactly the way it is, but close. Good jod, Sam.


Add a comment/correction

Complimentary Christian Ringtones
Dadamobile and CGR have teamed up to bring your favorite Christian artists right to your phone. Sign up today and get 10 complementary ringtones!
Tab Country
Did you know CGR has a sister site w/ country guitar tabs? Well we do! Its called Tab Country. It has a great archive with a lot of country tabs.
Rockin Tabs
Are you looking for a site that has rock guitar tabs? Then Rockintabs.com is the place for you. It is a budding site with many rock guitar tabs. Submit your tab today.
Tab Gallery
Tab Gallery has a compilation of christian, rock, and country tabs all in one place. Come visit us.