Guitar Tabs
song title    band name

Join Us Today!

Don't strum alone...
be a part of the largest online Christian music community. Browse thousands of guitar tabs and chat w/ musicians like yourself.


It's Free!

Ace Troubleshooter - Your Reach

This tab has been rated a 5.00 out of 5 for accuracy. (1 vote)Sorry, but you must be logged in to rate this tab.
Click here to log-in, or you can click here to register.
(Registration is free)

All songs owned by corresponding publishing company. If you make copies of any song on this website, be sure to report your usage to CCLI.
Artist- Ace Troubleshooter (Tooth and Nail Records)
Song- Your Reach
Album- The Madness of the Crowds
Tabbed by- Dan Burns (Coolenough86@aol.com)

(I don’t hear two guitar parts in this song, but this is the guitar 1 part
if there are 2)

Key- /= slide
    ()= palm mute
	?= not sure if correct name (is that really E6?)

Intro-part a
     B      B      C#      C#     E  ?E6 E E6  E  E6 E  E6  
e---------------------------------------------------------
B---------------------------------------------------------
G---4-4--4-4-4-4-/6-6--6-6-6-6-6-/9-9-9-9-9-9-9-9-9-9-9-9-
D---4-4--4-4-4-4-/6-6--6-6-6-6-6-/9-9-9-9-9-9-9-9-9-9-9-9-
A---2-2--2-2-2-2-/4-4--4-4-4-4-4—/7-7-6-7-7-6-7-7-6-7-7-6-
E---------------------------------------------------------
     
     B       B     C#      C#      E E6  E  E6 E E6  E  E6
e---------------------------------------------------------
B---------------------------------------------------------
G---4-4--4-4-4-4-/6-6--6-6-6-6-6-/9-9-9-9-9-9-9-9-9-9-9-9-
D---4-4--4-4-4-4-/6-6--6-6-6-6-6-/9-9-9-9-9-9-9-9-9-9-9-9-
A---2-2--2-2-2-2-/4-4--4-4-4-4-4—/7-7-6-7-7-6-7-7-6-7-7-6-
E---------------------------------------------------------

Intro- part b
     B    F#   B      F#
e--------------------------
B--------------------------
G---4-4-------4-4----------
D---4-4--4-4--4-4--4-4-4-4-
A---2-2--4-4--2-2--4-4-4-4-
E--------2-2-------2-2-2-2-

Verse- Play twice
      B    B      F#   E  G# E
e-------------------------------
B-------------------------------
G---4-4-4--4-4------------------
D---4-4-4--4-4--4-4-4--2--6--2--
A---2-2-2--2-2--4-4-4--2--6--2--
E---------------2-2-2--0--4--0--




Chorus-
    B  G# E  B  G# E 
e--------------------
B--------------------
G---4--------4-------
D---4--6--2--4--6--2-
A---2--6--2--2--6--2-
E------4--0-----4--0-

(Repeat Chorus part A)

(Repeat Verse)

(Repeat Chorus)

Background picking part- repeat 4x
     
e----------------
B---5-5-5--7-7-7-
G----------------

Pre-bridge/bridge a- Repeat 6x 

     B   B  B  B  B   C#  C# C# C# C#  E   E  E  E  E
e-----------------------------------------------------
B-----------------------------------------------------
G---(4)-(4)-4-(4)-4--(6)-(6)-6-(6)-6--(9)-(9)-9-(9)-9-
D---(4)-(4)-4-(4)-4--(6)-(6)-6-(6)-6--(9)-(9)-9-(9)-9-
A---(2)-(2)-2-(2)-2--(4)-(4)-4-(4)-4--(7)-(9)-7—(7)-7-
E-----------------------------------------------------
      E   E  E  E  E
E---------------------
B---------------------
G----(9)-(9)-9-(9)-9--
D----(9)-(9)-9-(9)-9--
A----(7)-(7)-7—(7)-7--
E---------------------







Bridge b-
     B   B  B  B  B       C#           G#  E  G#     E
e--------------------------------------------------------
B--------------------------------------------------------
G---(4)-(4)-4-(4)-4--(6)-(6)-6-(6)-6---------------------
D---(4)-(4)-4-(4)-4--(6)-(6)-6-(6)-6--6-6-2-2-6-6-2-2-2-2
A---(2)-(2)-2-(2)-2--(4)-(4)-4-(4)-4--6-6-2-2-6-6-2-2-2-2
E-------------------------------------4-4-0-0-4-4-0-0-0-0


     G#  E   G#    E    G#
e--------------------------
B--------------------------
G--------------------------
D---6-6-2-2-6-6-2-2-2-2--6-
A---6-6-2-2-6-6-2-2-2-2--6-
E---4-4-0-0-4-4-0-0-0-0--4-

(Repeat Chorus 2x)

Outro- Repeated several times (fade out)

e----------------
B---4-4-4--5-5-5-
G----------------

If you have any corrections and/or comments about this tab, E-mail me
at Coolenough86@aol.com, and enjoy learning a sweet song!

Comments about this tab

No comments/corrections found. Add your own

Complimentary Christian Ringtones
Dadamobile and CGR have teamed up to bring your favorite Christian artists right to your phone. Sign up today and get 10 complementary ringtones!
Tab Country
Did you know CGR has a sister site w/ country guitar tabs? Well we do! Its called Tab Country. It has a great archive with a lot of country tabs.
Rockin Tabs
Are you looking for a site that has rock guitar tabs? Then Rockintabs.com is the place for you. It is a budding site with many rock guitar tabs. Submit your tab today.
Tab Gallery
Tab Gallery has a compilation of christian, rock, and country tabs all in one place. Come visit us.