Guitar Tabs
song title    band name

Join Us Today!

Don't strum alone...
be a part of the largest online Christian music community. Browse thousands of guitar tabs and chat w/ musicians like yourself.


It's Free!

Seventh Day Slumber - I Know

This tab has been rated a 2.57 out of 5 for accuracy. (7 votes)Sorry, but you must be logged in to rate this tab.
Click here to log-in, or you can click here to register.
(Registration is free)

All songs owned by corresponding publishing company. If you make copies of any song on this website, be sure to report your usage to CCLI.
                   I Know--Seventh Day Slumber

STANDARD TUNING

INTRO;		E5	D5	C5	D5	E5
	E -----------------------------------------------------|
	B -----------------------------------------------------|
	G ------9--------7--------5-------7-------9------------|
	D ------9--------7--------5-------7-------9------------|
	A ------7--------5--------3-------5-------7------------|
	E -----------------------------------------------------|

VERSE; 
RIFF 1	
repeat x8    E ---------------------------------------------------------|
	     B ---------0----2-p-0----0---------------0----2-p-0-----0--|
	     G  -----0----0--------0--------------0-----0---------0-----|
	     D  --2---------------------------2-------------------------|
	     A  --------------------------------------------------------|
	     E  --------------------------------------------------------|

		
RIFF 2		     Em	      D	    C       D
repeat x4   E  ---------------3-----0------3-------|
	    B  ---------------2-----1------2-------|
	    G  ---------------3-----0------3-------|
	    D  ------0--------0-----2------0-------|
	    A  ------2--------------3--------------|
	    E  ------2-----------------------------|


CHORUS;		  E5	   D5	    C5	    D5
repeat x4   E ----------------------------------|
4th time    B ----------------------------------|
end on C5   G ----9--------7--------5-------7---|
	    D ----9--------7--------5-------7---|
	    A ----7--------5--------3-------5---|
	    E ----------------------------------|

BRIDGE;		C5	D5
repeat x2	E -----------------|
then chorus	B -----------------|
3x  under	G -----5-------7---|
guitar solo	D -----5-------7---|
	        A -----3-------5---|
	        E -----------------|

REPEAT CHORUS AND VERSE RIFF 1 FOR ENDING

Sorry I donít have the solo yet if anyone has anything to add please post
it on the site

Comments about this tab

jt16935 - 2005-03-04

This band rox!!! I met them when they played at my church!!!


red_ibanez84 - 2005-03-28

I saw them in Orlando and they were amazing!


hb1guitarist - 2005-06-26

um i dont really think this is quiet accurett but i have found and figured out one fault you have made
E --------------------------------------------------- B ---------0----2-p-0----0---------------0----2-p-0-----0--| G -----0----0--------0--------------0------0----------0-----|
D --2---------------------------2------------------------ A --------------------------------------------------------| E --------------------------------------------------------|

on this part its actually played with you pulling off the first fret on the b string instead of the second so here is how it should be played

E --------------------------------------------------- B ---------0----1-p-0----0---------------0----1-p-0-----0--| G -----0----0--------0--------------0-------0---------0-----|
D --2---------------------------2------------------------ A --------------------------------------------------------| E --------------------------------------------------------|

if i sound rude i appologize but im just trying to help people like my play songs right


hb1guitarist - 2005-06-26

um i dont really think this is quiet accurett but i have found and figured out one fault you have made
E --------------------------------------------------- B ---------0----2-p-0----0---------------0----2-p-0-----0--| G -----0----0--------0--------------0------0----------0-----|
D --2---------------------------2------------------------ A --------------------------------------------------------| E --------------------------------------------------------|

on this part its actually played with you pulling off the first fret on the b string instead of the second so here is how it should be played

E --------------------------------------------------- B ---------0----1-p-0----0---------------0----1-p-0-----0--| G -----0----0--------0--------------0-------0---------0-----|
D --2---------------------------2------------------------ A --------------------------------------------------------| E --------------------------------------------------------|

if i sound rude i appologize but im just trying to help people like my play songs right


antimatter - 2007-09-13

Actually i think the guitar fingering goes more like this


E --------------------------------------------------------|
B -------------1-p-0----0-----------------1-p-0-----0-----|
G -------2-----------0---------------2-----------0--------|
D --2-------2-------------------2-------2-----------------|
A -----2---------------------------2----------------------|
E --------------------------------------------------------|


Add a comment/correction

Complimentary Christian Ringtones
Dadamobile and CGR have teamed up to bring your favorite Christian artists right to your phone. Sign up today and get 10 complementary ringtones!
Tab Country
Did you know CGR has a sister site w/ country guitar tabs? Well we do! Its called Tab Country. It has a great archive with a lot of country tabs.
Rockin Tabs
Are you looking for a site that has rock guitar tabs? Then Rockintabs.com is the place for you. It is a budding site with many rock guitar tabs. Submit your tab today.
Tab Gallery
Tab Gallery has a compilation of christian, rock, and country tabs all in one place. Come visit us.