Guitar Tabs
song title    band name

Join Us Today!

Don't strum alone...
be a part of the largest online Christian music community. Browse thousands of guitar tabs and chat w/ musicians like yourself.


It's Free!

Relient K - Gibberish

This tab has been rated a 4.29 out of 5 for accuracy. (7 votes)Sorry, but you must be logged in to rate this tab.
Click here to log-in, or you can click here to register.
(Registration is free)

All songs owned by corresponding publishing company. If you make copies of any song on this website, be sure to report your usage to CCLI.
song: Gibberish
Artist: Relient K
CD: Two Lefts Dont Make a Right, But Three do...
Written by Matthew Thiessen
Copyright 2003 Gotee Music
Tabbed by Extreme_je5u5freak@yahoo.com


Intro: 

e  ----------------------------------------------------------------------
b  ----------------------------------------------------------------------
g  -----6-----7-7---7-7---9-9----------------7---------9--------12-------
d  -----6-----7-7----------------8-8---8-8------x6--------x12------x12---
a  -----4-----5-5---5-5---7-7----8-8---8-8---5---------7--------10-------
E  ------------------------------5-5---6-6-------------------------------
    
Verse: 

e  ----p.m---------------------p.m--------------------
b  ----/-\----------p.m--------/-\--------p.m---------
g  ---5--5--5-------/-\--------5-5--5-----/-\---------
d  ---5--5--5------3--3--3-----5-5--5-----5-5--5------
a  ---3--3--3------3--3--3-----3-3--3-----5-5--5------
E  ----------------1--1--1----------------3-3--3------

Paravilentinea part:  palm muted play each 8 times

e  ------------------------------------------------
b  ------------------------------------------------
g  ------------------------------------------------
d  -----7-----5-----3-----5------------------------
a  -----7-----5-----3-----5------------------------
E  -----5-----3-----1-----3------------------------

Rest of verse:

e -----------------------------------------------
b -----------------------------------------------
g ---5----5----5----5---5----5----5--5-----------
d ---5----5----5----5---5----5----5--5-----------
a ---3----3----2----3---3----3----2--3-----------
E -----------------------------------------------


Chorus: gtr. 1

e  ----------------------------------------------
b  ----------------------------------------------
g  -----5-5--------------------------------------
d  -----5-5----5-5----3-3---5-5------------------
a  -----3-3----5-5----3-3---5-5------------------
E  ------------3-3----1-1---3-3------------------


Chorus: gtr. 2

e  ---------------------------------------------
b  ---------------------------------------------
g  ----9--7--10--7---------9--7--10--7--9-------
d  ------------------x3-------------------------
a  ----7--5--8---5---------7--5--8---5--7-------
E  ---------------------------------------------


bridge: bass at begining

e --------------------------------------------------
b --------------------------------------------------
g ----5---------------------------------------------
d ----5-(x8)-----3------------5---------------------  x2
a ----3----------3---(x4)-----5---(x4)--------------
E ---------------1------------3---------------------

e  ----------------------------------------------------------------
b  ----p.m.-----------p.m.-----------p.m.-----------p.m.-----------
g  ----/-\------------/-\------------/-\------------/-\------------
d  ---3---3---3------5---5---5------3---3---3------5---5---5-------
a  ---5---5---5------5---5---5------3---3---3------5---5---5-------
E  ---5---5---5------3---3---3------1---1---1------3---3---3-------

play first part of verse then Paravilentinea part then chorus.
lastly, play bridge then end.

HaVe FuN,
God bless,
Mike

Comments about this tab

Switchfoot182 - 2004-04-30

At the part: But if I had a million zillion wishes play

A\--33333333--------33333333-------
E\----------11113333--------1111333

God Bless.


Alextx89 - 2004-07-28

At the rest of verse play this instead:

e-----------------------------------------------
b-----------------------------------------------
g-5-5-5--5-5-5----------------------------------
D-5-5-5--5-5-5--10-10-10--10-10-10--------------
A-3-3-3--3-3-3--7--7--7---8--8--8---------------
E-----------------------------------------------
pm... pm.. pm... pm....


Alextx89 - 2004-07-28

At the rest of verse play this instead:

e-----------------------------------------------
b-pm>----pm>----pm>>>-----pm>>>-----------------
g-5-5-5--5-5-5----------------------------------
D-5-5-5--5-5-5--10-10-10--10-10-10--------------
A-3-3-3--3-3-3--7--7--7---8--8--8---------------
E-----------------------------------------------


pearin - 2005-06-01

hey thanks for the tab but a correction on the Guitar 1 Chorus:
E---------------------------------------------------------
B---------------------------------------------------------
G------5--------3------------------------------------------
D------5--------3---------3-----------5----------------------
A------3--------1---------3-----------5----------------------
E-------------------------1-----------3------------------------


gnarlynarwhal1 - 2005-11-09

do you have the lyrics??? just kidding ;) that's a kool song... gnarlyness

i betcha don't know what a narwhal is???


4of5Rocker - 2006-08-02

a narwhal is one of those whales with a horn protruding from its skull


Add a comment/correction

Complimentary Christian Ringtones
Dadamobile and CGR have teamed up to bring your favorite Christian artists right to your phone. Sign up today and get 10 complementary ringtones!
Tab Country
Did you know CGR has a sister site w/ country guitar tabs? Well we do! Its called Tab Country. It has a great archive with a lot of country tabs.
Rockin Tabs
Are you looking for a site that has rock guitar tabs? Then Rockintabs.com is the place for you. It is a budding site with many rock guitar tabs. Submit your tab today.
Tab Gallery
Tab Gallery has a compilation of christian, rock, and country tabs all in one place. Come visit us.