Guitar Tabs
song title    band name

Join Us Today!

Don't strum alone...
be a part of the largest online Christian music community. Browse thousands of guitar tabs and chat w/ musicians like yourself.


It's Free!

Delirious - Lord You Have My Heart

This tab has been rated a 4.38 out of 5 for accuracy. (8 votes)Sorry, but you must be logged in to rate this tab.
Click here to log-in, or you can click here to register.
(Registration is free)

All songs owned by corresponding publishing company. If you make copies of any song on this website, be sure to report your usage to CCLI.
Lord You Have My Heart
Delirious?
CD: Cutting Edge
c1992 Kingsway's Thankyou Music
Tab by Steve Cruickshank
(postlambjam@hotmail.com)


Capo on 3

Intro:
e-----------3--------------0-----------
B---------0--------------1-------------
G-------5--------------0---------------
D-----5--------------3-----------------
A---0--------------3-------------------
E----------------1---------------------
----Am7*         Fmaj7


Verse:
e---3-------|---------3--|--------------3-|--------3------------
B--------1--|--1------1--|----------------|-3--------3----------
G------0----|-------0----|-----0------0---|------0-------0------
D-----------|-----3------|----------------|----0-------0--------
A---0-------|------------|---3------3-----|---------------------
E-----------|--1---------|-1------0-------|-3-------------------
----Am7        F           Fmaj7  C/E       G

e--------3--|-------3-------|---------0--|--0-----0--------0----
B---1----1--|-------1-------|-1----------|-----------3----------
G---0--0----|-----0----0---0|-------0----|------0--------0------
D---2-------|---3-----------|-----2------|----2--------0--------
A---0-------|---------------|-3----------|--3-------------------
E-----------|-1--------3----|------------|-----------3----------
----Am7       F        G      C*                     G

e---3-------|---------3--|--------------3-|--------3------------
B--------1--|--1------1--|----------------|-3--------3----------
G------0----|-------0----|-----0------0---|------0-------0------
D-----------|-----3------|----------------|----0-------0--------
A---0-------|------------|---3------3-----|---------------------
E-----------|--1---------|-1------0-------|-3-------------------
----Am7        F           Fmaj7  C/E       G

e--------3--|-------3---------|---------3-----|---------3-------
B---1----1--|-1-----1---------|-1-------------|--1------1-------
G---0--0----|-----0---------0-|------0------0-|------0--0-------
D---2-------|---3---------0---|----2------2---|----2------------
A---0-------|-----------------|-3-------3-----|--3--------------
E-----------|-1-------3-------|---------------|-----------------
----Am7       F       G         C


Chorus:
e---------3--|-------3-------3-|-------3----|---------3---------
B---1--------|-----------------|-------3--1-|--0----------------
G-------0----|-----0-------0---|-----0------|-------0-----------
D-----2------|---3-------------|---0--------|-----0-------------
A---3--------|-----------3-----|------------|-------------------
E------------|-1-------0-------|-3----------|--3----------------
----C          F       C/E       G

e---------3--|-------3-------3-|-------3------|-------3---------
B---1--------|-----------------|-3------------|-3-------3-------
G-------0----|-----0-------0---|-----0-----0--|-----0-----------
D-----2------|---3-------------|---0-----0----|---0---------0---
A---3--------|-----------3-----|--------------|-----------------
E------------|-1-------0-------|-3------------|-3---------3-----
----C          F       C/E       G

e---------3--|-------3-------3-|-------3-------|--------3-------
B---1--------|-----------------|-3-------3-----|--3-------------
G-------0----|-----0-------0---|-----0-------0-|------0---------
D-----2------|---3-------------|---0-------0---|----0-----------
A---3--------|-----------3-----|---------------|----------------
E------------|-1-------0-------|-3-------------|--3-------------
----C          F       C/E       G

e------------|--------3---|--3----------|--0-----0--------0-----
B---1----1---|--3---------|--1---1------|-----------3-----------
G------------|------0-----|--0-----0----|------0--------0-------
D------------|----0-------|--2----------|----2--------0---------
A------------|------------|--3----------|--3--------------------
E---1----0---|--3---------|-------------|-----------3-----------
----F    C/E    G           C              C*       G



After 2nd chorus:
e--------3--------3-|--3-----3--|----------3--|---------3-------
B--1--------1-------|--3--------|--------0----|--0----0---------
G------0--------0---|------0----|------5------|----5------------ (x2)
D----3--------------|----0------|----5--------|-----------------
A-------------3-----|-----------|-0-----------|-----------------
E--1--------0-------|--3--------|-------------|-----------------
---F        C/E        G          Am7*

e--------3--------3-|--3-----3--|----------3----------3---------
B--1--------1-------|-----------|-------1-3---1---3----1--------
G------0--------0---|------0----|-----0---------0------0--------
D----3--------------|----0------|-------------------------------
A-------------3-----|-----------|---3------------------3--------
E--1--------0-------|--3--------|-------------------------------
---F        C/E        G            C

Verse:
Am7  F  Fmaj7  C/E  G
Am7  F  G  C*  C*  G
Am7  F  Fmaj7  C/E  G
Am7  F  G  C

Chorus:
(C  F  C/E  G) x3
 F  C/E  G  C  C*  G
(back into verse)


End:
(F  C/E  G  Am7*) x2
 F  C/E  G  C

Chords:
Am7   x02013
F     1x3013 (use thumb on low string)
Fmaj7 133010 (use thumb on low string)
C     x32013
C/E   032013
C*    x32010
Am7*  x05503


This is as accurate as I could get it from the CD. There are some minor
differences between the first and second times through the verse and
chorus but I didn't put them down here. This is how I play it in our 
worship band, with changes here and there to make it easier to play
(like without some of the weird F positions)

Comments about this tab

d-lirious - 2004-07-04

I really like the way that sounds on my electric guitars!Good job with that tab!


Add a comment/correction

Complimentary Christian Ringtones
Dadamobile and CGR have teamed up to bring your favorite Christian artists right to your phone. Sign up today and get 10 complementary ringtones!
Tab Country
Did you know CGR has a sister site w/ country guitar tabs? Well we do! Its called Tab Country. It has a great archive with a lot of country tabs.
Rockin Tabs
Are you looking for a site that has rock guitar tabs? Then Rockintabs.com is the place for you. It is a budding site with many rock guitar tabs. Submit your tab today.
Tab Gallery
Tab Gallery has a compilation of christian, rock, and country tabs all in one place. Come visit us.