Guitar Tabs
song title    band name

Join Us Today!

Don't strum alone...
be a part of the largest online Christian music community. Browse thousands of guitar tabs and chat w/ musicians like yourself.


It's Free!

Relient K - In Love With the 80's (Pink Tux To the Prom)

This tab has been rated a 5.00 out of 5 for accuracy. (5 votes)Sorry, but you must be logged in to rate this tab.
Click here to log-in, or you can click here to register.
(Registration is free)

All songs owned by corresponding publishing company. If you make copies of any song on this website, be sure to report your usage to CCLI.
Band: Relient K
Song: In Love With The 80's (Pink Tux to the Prom)
2003 gotee records
Tabbed by: Ken

This is just the solo riff for this song.

e ----------13-12--10---------------------13-12-15-15-17-15-13-15-15-17-15-13
B ----10-13------13--13-----10-------10-13-----------------------------------
G --10-----------------10-12--12---10----------------------------------------
D ---------------------------------------------------------------------------
A ---------------------------------------------------------------------------
E ---------------------------------------------------------------------------


Thats it! This is in the song quite a few times, just listen to it!

Thanks!
-Ken
Email: ha_thats_mildly_amusing@hotmail.com

Comments about this tab

pinkflvrdbanana - 2005-03-03

This solo rocks! I play it all the time! Cause I love this song!
Thanks dude!

Pink_Flavored_bananas


thechadisgreat - 2005-04-20

Nicely done!


lientklover - 2005-06-29

the notes are right, there're just an octave too high
it goes a little like this.

e)-------1-0------------------------------1-0-----3-3-3-5-5-3-1-3-5-5-3-1-)
B)-----1-----1-1-3-3-2-------------------1--------------------------------)
G)---2-------------------0-2-0---------2----------------------------------)
D)-3-------------------3-------------3------------------------------------)


good job on the tab. it sounds pretty cool when you have two guitars playing each octave at the same time, but it takes a lot of practice to get the duet down. God Bless

P.S. Relient k Rocks!!!!!!!!!!!!!!!!!


y_w_c_f_g - 2005-07-28

Its a great tab and the song is even better. God Bless.


plokiju - 2006-03-16

nice


Add a comment/correction

Complimentary Christian Ringtones
Dadamobile and CGR have teamed up to bring your favorite Christian artists right to your phone. Sign up today and get 10 complementary ringtones!
Tab Country
Did you know CGR has a sister site w/ country guitar tabs? Well we do! Its called Tab Country. It has a great archive with a lot of country tabs.
Rockin Tabs
Are you looking for a site that has rock guitar tabs? Then Rockintabs.com is the place for you. It is a budding site with many rock guitar tabs. Submit your tab today.
Tab Gallery
Tab Gallery has a compilation of christian, rock, and country tabs all in one place. Come visit us.